Guitar Tabs, Chords and Lyrics


Salvage A Smile  Laura Veirs

E |----------------------0---------------------------|


A |--3-3-3-3-3-3-3-3-3-3--3----------------------0---|


D |-4-4-4-4-4-4-4-4-4-4-4----3-3-3-3-3-3-3-3-3-3--3--|

G |-------------------------4-4-4-4-4-4-4-4-4-4-4----|
B |--------------------------------------------------|
E |--------------------------------------------------|
E |---------------------------------------------------|
B |-------2-3------3-2---3-3-3-3-3-3-3-3--------------|
G |---0-0------0-0------4-4-4-4-4-4-4-4---------------|
D |-2-------------------------------------------------|
A |---------------------------------------------------|
E |---------------------------------------------------|
[A7]Break the glass from your hanging lant[Bm]erns
[A7]Break the sea with your blackened anch[Bm]ors
[F#]And you might end up a floating junk pi[A7]le
[F#]But you can always scramble to salvage a [Bm]smile
[F#]But you can always scramble to salvage a sm[Bm]ile

Important: The song above is NOT stored on the Chordie server. The original song is hosted at www.guitaretab.com. Chordie works as a search engine and provides on-the-fly formatting. Chordie does not index songs against artists'/composers' will. To remove this song please click here.

Text color:
Chord color:
Chord grids: 
Font size:    
Page size: 

A7 Bm F#
variations - click chord images

Login - add to songbook

Transpose chords

Tuning

Rating click stars to rate

Layout
Accuracy

SHARE PAGE  




You need to log in to post comments