Chordie logo


Porno And Snuff Films   Lawrence Arms



----------------------------------------------------------------------------
               Porno and Snuffilms - The Lawrence Arms
----------------------------------------------------------------------------

Tabbed by: Max Guhlke
Email:Max.Guhlke@web.de

Tuning: E A D G B E

INTRO     
E|-----------------|------------------------|
B|-----------------|------------------------|
G|----------5------|----------5------4------|
D|--5-------5------|-5--------5------5------|
A|--5-(16x)-3-(16x)|-5(16x)---3-(8x)-3-(8x)-|
E|--3--------------|-3----------------------|

END INTRO ON
E|--------------------------|
B|--------------------------|
G|--55-55-55-55-55-55-55-55-|
D|--55-55-55-55-55-55-55-55-|
A|--33-33-33-33-33-33-33-33-|
E|--------------------------|
pm  ..    ..    ..    ..

VERSE 2x
E|------------------|
B|------------------|
G|----------5-------|
D|--5-------5-------|
A|--5-(20x)-3-(20x)-|
E|--3---------------|
pm  .

PRECHORUS 
E|-----------------|
B|-----------------|
G|--7-------5------|
D|--7-------5------|
A|--5-(16x)-3-(16x)|
E|-----------------|

CHORUS 2x          end on
E|-----------------|----|
B|-----------------|----|
G|----------5------|-77-|
D|--5-------5------|-77-|
A|--5-(16x)-3-(16x)|-55-|
E|--3--------------|----|

VERSE
1x REPEAT

E|-----------------------|
B|-----------------------|
G|----2---4---2---5------|
D|---5---5---5--5-5------|
A|--5---5---5--5--3-(16x)|
E|-----------------------|

2x PRECHORUS
2x CHORUS 

THEN PLAY THIS 6x   THEN
E|-----------------|--------|
B|-----------------|--------|
G|------555-----777|-5------|
D|--222-555-555-777|-5------|
A|--222-333-555-555|-3-(16x)|
E|--000-----333----|--------|

INTERLUDE (REPEAT A LOT OF TIMES)
E|--x-|
B|--x-|
G|--x-|
D|--x-|
A|--x-|
E|--x-|

4x CHORUS

OUTRO 2x
E|----------------------------|-----------|
B|----------------------------|-----------|
G|-----77-5---------77-5------|-----------|
D|--55-77-5------22-77-5------|-55555555-5|
A|--55-55-3-(8x)-22-55-3-(8x)-|-55555555-5|
E|--33-----------00-----------|-33333333-3|



Important: The song above is NOT stored on the Chordie server. The original song is hosted at www.guitaretab.com. Chordie works as a search engine and provides on-the-fly formatting. Chordie does not index songs against artists/composers will. To remove this song please click here.

This song is displayed as text-only. Transposing and tuning is only available for chordpro-songs.

Login - add to songbook

Rating click stars to rate

Layout
Accuracy

SHARE PAGE  




You need to log in to post comments