"yes"; ?> Where Did You Sleep Last Night by Leadbelly - guitar chords, guitar tabs and lyrics - chordie

Where Did You Sleep Last Night

Leadbelly

 EA/EAGB#F#EE/A
e|---------|---------|--------------|---------|---------|-------|---------|---------|
B|---------|---------|---------2-2--|----0-0--|---------|-------|---------|---------|
G|----7-7--|----7----|---------2-2--|----0-0--|----4-4--|---4---|----7-7--|----7-7--|
D|----6-6--|----6----|---------2-2--|----0-0--|----4-4--|---4---|----6-6--|----6-6--|
A|----7-7--|---------|------0-------|----2-2--|-2-------|-------|----7-7--|-7--7-7--|
E|-0-------|--7------|-0h2h3--------|-3-------|---------|-2---4-|-0-------|---------|


INTRO - Part 2.
 EEAGB#F#EE/A
e|------------|-----------|--------------|---------|---------|-------|---------|--------|
B|------------|-----------|---------2-2--|----0-0--|---------|-------|---------|--------|
G|------------|-----------|---------2-2--|----0-0--|----4-4--|-------|----7-7--|----7-7-|
D|----------2-|---------2-|---------2-2--|----0-0--|----4-4--|-------|----6-6--|----6-6-|
A|----------2-|------2--2-|------0-------|----2-2--|-2-------|-------|----7-7--|----7-7-|
E|-0h2h3p0----|-0h2h3-----|-0h2h3--------|-3-------|---------|-2-4-2-|-0-------|-7------|


RIFF 1.
 EA/EAGB#F#EE/A
e|---------|---------|--------------|---------|---------|-------|---------|---------|
B|---------|---------|---------2-2--|----0-0--|---------|-------|---------|---------|
G|----7-7--|----7----|---------2-2--|----0-0--|----4-4--|---4---|----7-7--|----7-7--|
D|----6-6--|----6----|---------2-2--|----0-0--|----4-4--|---4---|----6-6--|----6-6--|
A|----7-7--|---------|------0-------|----2-2--|-2-------|-------|----7-7--|----7-7--|
E|-0-------|--7------|-0h2h3--------|-3-------|---------|-2---4-|-0-------|-7-------|

lyrics: (Repeat RIFF 1 for each line)

my girl, my girl, don't lie to me,
tell me where did you sleep last night?(come on and tell me baby)
In the pines, in the pines,
Where the sun don't ever shine,
I will shiver the whole night through.

My girl, my girl, where will you go,
I'm going where the cold wind blows.(where's that at baby?)
In the pines, in the pines,
Where the sun don't ever shine,
I will shiver the whole night through.

my girl, my girl, don't you lie to me,
tell me where did you sleep last night?(come on and tell me something about it)
In the pines, in the pines,
Where the sun don't ever shine,
I will shiver the whole night through.(shiver for me now)

Play INTRO PART 2 (x2)

(what happened down there?)
My husband was a hard working man,
Still a mile and a half from here.(what happened to him?)
His head was found in the driving wheel,
and his body never never been found.

my girl, my girl, don't you lie to me,
tell me where did you sleep last night?(come on and tell me something about it)
In the pines, in the pines,
Where the sun don't ever shine,
I will shiver the whole night through.


A A/E E F# G
variations - click chord images
Transpose chords:
Tuning:
Cool service:
View: Size:
A  A  A
Rating:
Layout:
  • Currently 2.8/5 Stars.
  • 1
  • 2
  • 3
  • 4
  • 5
 
Accuracy:
  • Currently 2.6/5 Stars.
  • 1
  • 2
  • 3
  • 4
  • 5
 
click stars to rate
Chordie recommends:
Get acoustic guitar lessons and electric guitar lessons at JamPlay.com
Songbook:
Login to add this song to your songbook
Support the artist
Preview/buy this song
MSN Music
Why this non-profit ad?

 
login to add comments/video/corrections