Hell To Pay

Leah Andreone

 E
E|---------------|-------------|---------------|-------------|
B|---------------|-------------|---------------|-------------|
G|---------------|-------------|---------------|-------------|
D|-2---2-2---2-5-|-2---2-2---2-|-2---2-2---2-5-|-2---2-2---2-|
A|-2h5---2h5---5-|-2h5---2h5---|-2h5---2h5---5-|-2h5---2h5---|
E|---------------|-------------|---------------|-------------|


* riff 2:

 AE
E|---------------|-------------|---------------|-------------|
B|---------------|-------------|---------------|-------------|
G|-2---2-2---2-5-|-2---2-2---2-|---------------|-------------|
D|-2h5---2h5---5-|-2h5---2h5---|-2---2-2---2-5-|-2---2-2---2-|
A|---------------|-------------|-2h5---2h5---5-|-2h5---2h5---|
E|---------------|-------------|---------------|-------------|


********************************************************************

 intro
riff 1

 verse
--riff 1--
If I didn't know your game
Would you lay me down and lie about your name
--riff 2--
If things didn't go your way
Would you tell the lawyers you were just playing

 cborus
 G
 If there were no hell to pay
F# F riff 1
I wonder would you still need a god

 verse
If the rich were weak would you fight for their lives
Without a marriage would you give up your wife
If you saw me coming would you take another route
In your house, does difference stay out?

 cborus
 cborus

 bridge
 E
Do you dig for gold
 G
Would you sell your soul
 A
What should we know
 CD
 Who are you when you're alone
 E
If my eyes were closed
 G
Would you launch your stones
 A
What should we know
 CD
 Who are you when you are all alone

 verse
With the cameras off would you beat him till he's dead
If you found the cure, would you make us beg
If no one had to work, would you still get out of bed
If the bullet was for me would you take it in the head

 cborus
 cborus

 bridge
Do you dig for gold
Would you sell your soul
What should we know
Who are you when you're alone
If my eyes were closed
Would you launch your stones
What should we know
Who are you when you are all alone

 cborus witb cbords of bridge
If there were no hell to pay
I wonder would you still need a god
If there were no hell to pay
I wonder would you still need a god

 end witb riff 1
Would you still need a god
If there were no hell to pay
Would you still need a god
If there were no hell to pay
Would you still need a god


A C D E G
variations - click chord images
Transpose chords:
Tuning:
Cool service:
View: Size:
A  A  A
Rating:
Layout:
  • Currently 2.6/5 Stars.
  • 1
  • 2
  • 3
  • 4
  • 5
 
Accuracy:
  • Currently 2.7/5 Stars.
  • 1
  • 2
  • 3
  • 4
  • 5
 
click stars to rate
Chordie recommends:
Get acoustic guitar lessons and electric guitar lessons at JamPlay.com
Songbook:
Login to add this song to your songbook
Support the artist
Preview/buy this song
MSN Music
Why this non-profit ad?

 
login to add comments/video/corrections