-----------------------------------------------------------------------

-----------------------------------------------------------------------
e|-------------------|
B|5-5-5-7-7-7-9-9-9--|
G|-------------------|
D|6-6-6-7-7-7-9-9-9--|
A|-------------------|
E|-------------------|

 ADbDb7F#F#7
 Blue-oo-oo-oo-oo     Oh so lonesome for you
 B7E
 Why can't you be blue over

 AE
  me?           
e|------------|--------------|
B|--------5-7-|5----5--------|
G|----2/6-----|------6p4-6p4-|
D|------------|--------------|
A|------------|--------------|
E|------------|--------------|


 ADbDb7F#F#7
 Blue-oo-oo-oo-oo     Oh so lonesome for you
 B7E
 Tears fill my eyes till I can't

A D A N.C.
see
e|--5---5--5--|0-----------|
B|---5--7\-4--|------------|
G|-----6------|2----h2-4-5-|
D|------------|------------|
A|------------|------0-2-3-|
E|------------|------------|


CHORUS
 DbDb7
 Three O'clock in the morning 
 F#F#7
 Here am I  
 B7
 Sitting here so lonely
E Ebdim E (INTRO)
So lonesome I could cry
                       e|-------------------|
                       B|5-5-5-7-7-7-9-9-9--|
                       G|-------------------|
                       D|6-6-6-7-7-7-9-9-9--|
                       A|-------------------|
                       E|-------------------|


VERSE:
 ADbDb7F#F#7B7
 Blue-oo-oo-oo-oo      Oh so lonesome for you    
                                 e|-----------|-----|
                                 B|-11\-7\-5\-|4----|
                                 G|-----------|-----|
                                 D|-----------|-----|
                                 A|-----------|-----|
                                 B|-----------|-----|


 B7E
 Why can't you be blue over

 ADA
  me?                  
e|--5----------------|------------|
B|--6\5-----5--------|------------|  SOLO
G|------4/6--6p4h6p4-|------------| STARTS
D|-------------------|7-----------|  HERE
A|-------------------|------------|
E|-------------------|------------|

*The 6\5 slide on the B string happens
very quickly, immediately on the beat

SOLO Chords:
A | Db Db7 | F# | F#7

B7 | E | A D |A N.C.
                         e|------------|
                         B|------------|
                         G|-----h2-4-5-|
                         D|------------|
                         A|------0-2-3-|
                         E|------------|


CHORUS
 DbDb7
 Now that's it over 
 F#F#7
 I realized   
 B7
 Those weak words you whispered
E Ebdim E N.C.
Were nothing but lies
                       e|---------------------|
                       B|6-6-6-7-7-7-9--9--9--|
                       G|---------------------|
                       D|6-6-6-8-8-8-10-10-10-|
                       A|---------------------|
                       E|---------------------|


VERSE:
 A#DD7GG7C7
 Blue-oo-oo-oo-oo    Oh so lonesome for you     
                             e|-/13\-12\-10\-|8----|
                             B|--------------|-----|
                             G|-/14\-12\-10\-|9----|
                             D|--------------|-----|
                             A|--------------|-----|
                             B|--------------|-----|


 C7FA#AA#BC7
 Why can't you be blue over me?              
                           e|-5-5/6-6/7-7/|8----|
                           B|-------------|-----|
                           G|-6-6/7-7/8-8/|9----|
                           D|-------------|-----|
                           A|-------------|-----|
                           B|-------------|-----|


 C7FA#A#
 Why can't you be blue over me?               
                         e|----------------|6---||
                         B|----------------|6---||
                         G|---10-9--9-8--8-|7---||
                         D|---12-11-11-----|8---||
                         A|-----------9-9--|8---||
                         B|----------------|6---||


| / slide up
| \ slide down
| h hammer-on
| p pull-off
| ~ vibrato
| + harmonic
| x Mute note
=======================================================================


A A# B B7 C7 D D7 Db Db7 E F F# F#7 G G7
variations - click chord images
Transpose chords:
Tuning:
Cool service:
View: Size:
A  A  A
Rating:
Layout:
  • Currently 3/5 Stars.
  • 1
  • 2
  • 3
  • 4
  • 5
 
Accuracy:
  • Currently 2.7/5 Stars.
  • 1
  • 2
  • 3
  • 4
  • 5
 
click stars to rate
Chordie recommends:
Learn to play this song & others via video guitar lessons at JamPlay.com
Songbook:
Login to add this song to your songbook
Support the artist
Preview/buy this song
MSN Music
Why this non-profit ad?

 
login to add comments/video/corrections