4/4
  Gtr I
H E E E E W +H E E E E W +H E E E E
|--------0-0-0-|-0--------|-(0)----0-0-----|----------|----------0-0-0---|
|--------0-0-0-|-0--------|-(0)----0-0-0-0-|-0--------|-(0)----0-0-0-0---|
|--------0-0-0-|-0--------|-(0)----0-0-x-0-|-0--------|-(0)----0-0-0-0---|
|--------0-0-0-|-0--------|-(0)----0-0-3-0-|-0--------|-(0)----0-0-0-0---|
|--------3-3-3-|-3--------|-(3)----3-3-3-3-|-3--------|-(3)----3-0-3-0---|
|--------0-0-0-|-0--------|-(0)----0-0-3---|-0--------|-(0)----0-0-0-0---|


Q Q E E Q E E Q E E E E Q Q E E Q E E E E E E E E
|-0--0--0-0-0--|-0-0-0----------|----0--0-0-0--|-----------------|
|-0--0--0-0-0--|-0-0-0----0-0-0-|-0--0--0-0-0--|-0-0-0-0-0-0-0-0-|
|-0--0--0-0-0--|-0-0-0----0-0-0-|-0--0--0-0-0--|-0-0-0-0-0-0-0-0-|
|-0--0--0-0-0--|-0-0-0--0-0-3-0-|-0--0--0-0-0--|-0-0-0-0-0-0-3-0-|
|-3--3--3-3-3--|-3-3-3--3---3-0-|-3--3--3-3-3--|-3-3-3-3-3-3-3-0-|
|-0--0--0-0-0--|-0-0-0--0---3-0-|-0--0--0-0-0--|-0-0-0-0-0-0-3-0-|


 EEEEEEEEEEEEEEEEEEEEEEEEEEEEEEEE
||----0-3-0-2-0-0-0-|-2-0-2-0-2-3-----|---0-3-0-2-0-0-0-|-2-0-2-0-2-0------|
||o-0-0-3-0-2-0-0-0-|-2-0-2-0-2-3-----|-0-0-3-0-2-0-0-0-|-2-0-2-0-2-0------|
||--0-0-0-0-0-0-0-0-|-0-0-0-0-0-0-0-0-|-0-0-0-0-0-0-0-0-|-0-0-0-0-0-0-0-0--|
||--0-0-0-0-0-0-0-0-|-0-0-0-0-0-0-0-0-|-0-0-0-0-0-0-0-0-|-0-0-0-0-0-0-0-0--|
||o-3-3-3-3-3-3-3-3-|-3-3-3-3-3-0-3-0-|-3-3-3-3-3-3-3-3-|-3-3-3-3-3-0-3-0--|
||--0---------------|-----------0-0-0-|-0---------------|-----------0-0-0--|


 EEEEEEEEEEEEEEEEEEEEEEEEEEEEEE
|---0-3-0-2-0-0-0-|-2-0-2-0-2-3-----|---0-3-0-2-0-----|--------------|
|-0-0-3-0-2-0-0-0-|-2-0-2-0-2-3-----|-0-0-3-0-2-0-----|--------------|
|-0-0-0-0-0-0-0-0-|-0-0-0-0-0-0-0-0-|-0-0-0-0-0-0-5-5-|-5-x-x-8-x-x--|
|-0-0-0-0-0-0-0-0-|-0-0-0-0-0-0-0-0-|-0-0-0-0-0-0-x-0-|-x-x-x-x-x-x--|
|-3-3-3-3-3-3-3-3-|-3-3-3-3-3-0-3-0-|-3-3-3-3-3---3-0-|-3-x-x-6-x-x--|
|-0---------------|-----------0-0-0-|-0-----------0-0-|-0-0-0-0-0-0--|


1. 2.
 2/42/4
  E E E  E E E   E E E  E E E    E E E E       Q   E E
|--------------|--------------|-----------||-------0-0-||
|--------------|--------------|----0-0-0-o||-------0-0-||
|-7-x-x-10-x-x-|-9-x-x-12-x-x-|-11-0-0-0--||--11--11-x-||
|-x-x-x--x-x-x-|-x-x-x--x-x-x-|--x-0-0-0--||---x---x-x-||
|-5-x-x--8-x-x-|-7-x-x-10-x-x-|--9-0-3-0-o||---9---9-x-||
|-0-0-0--0-0-0-|-0-0-0--0-0-0-|--0-0-0-0--||---0---0-0-||


Verses:

 4/4
    Q  E E E E E E   E E E E  E  E  E  E
||-----0-0-0-0-0-0-|-0-0-0-0--0--0--0--0-|
||o----0-0-0-0-0-0-|-0-0-0-0--0--0--0--0-|
||--5--5-5-5-5-5-5-|-5-5-5-5-12-12-12-12-|
||--x--x-x-x-x-x-x-|-x-x-x-x--x--x--x--x-|
||o-3--3-3-3-3-3-3-|-3-3-3-3-10-10-10-10-|
||--0--0-0-0-0-0-0-|-0-0-0-0--0--0--0--0-|


 EEEEEEEEEEEEEEEE
|--0--0--0--0--0--0--0--0-|--0--0--0--0--0--0--0--0-|
|--0--0--0--0--0--0--0--0-|--0--0--0--0--0--0--0--0-|
|-11-11-11-11-11-11-11-11-|-11-11-11-11-12-12-12-12-|
|--x--x--x--x--x--x--x--x-|--0--0--0--0--0--0--0--0-|
|--9--9--9--9--9--9--9--9-|--9--9--9--9-10-10-10-10-|
|--0--0--0--0--0--0--0--0-|--0--0--0--0--0--0--0--0-|


 EEEEEEEEEEEEEEEE
|--0--0--0--0--0--0--0--0-|--0--0--0--0-0-0-0-0-|
|--0--0--0--0--0--0--0--0-|--0--0--0--0-0-0-0-0-|
|-14-14-14-14-14-14-14-14-|-14-14-14-14-9-9-9-9-|
|--x--x--x--x--x--x--x--x-|--x--x--x--x-x-x-x-x-|
|-12-12-12-12-12-12-12-12-|-12-12-12-12-7-7-7-7-|
|--0--0--0--0--0--0--0--0-|--0--0--0--0-0-0-0-0-|


E E E E E E E E E E E E Q E E
|--0--0--0--0--0--0--0--0-|--0--0--0--0-0--0-0-|
|--0--0--0--0--0--0--0--0-|--0--0--0--0-0--0-0-|
|-11-11-11-11-11-11-11-11-|-11-11-11-11-6--6-6-|
|--x--x--x--x--x--x--x--x-|--x--x--x--x-x--x-x-|
|--9--9--9--9--9--9--9--9-|--9--9--9--9-4--4-4-|
|--0--0--0--0--0--0--0--0-|--0--0--0--0-0--0-0-|


 EEEEEEEEEEEEEEEE
|-----0-0-0-0-0-0-|-0-0-0-0--0--0--0--0-|
|-----0-0-0-0-0-0-|-0-0-0-0--0--0--0--0-|
|-5-5-5-5-5-5-5-5-|-5-5-5-5-12-12-12-12-|
|-x-x-x-x-x-x-x-x-|-x-x-x-x--x--x--x--x-|
|-3-3-3-3-3-3-3-3-|-3-3-3-3-10-10-10-10-|
|-0-0-0-0-0-0-0-0-|-0-0-0-0--0--0--0--0-|


E E E E E E E E E E E E Q E E
|--0--0--0--0--0--0--0--0-|--0--0--0--0--0---0--0-|
|--0--0--0--0--0--0--0--0-|--0--0--0--0--0---0--0-|
|-11-11-11-11-11-11-11-11-|-11-11-11-11-12--12-12-|
|--x--x--x--x--x--x--x--x-|--x--x--x--x--x---x--x-|
|--9--9--9--9--9--9--9--9-|--9--9--9--9-10--10-10-|
|--0--0--0--0--0--0--0--0-|--0--0--0--0--0---0--0-|


E E E E E E E E E E E E Q E E
|--0--0--0--0--0--0--0--0-|--0--0--0--0-0--0-0-|
|--0--0--0--0--0--0--0--0-|--0--0--0--0-0--0-0-|
|-14-14-14-14-14-14-14-14-|-14-14-14-14-9--9-9-|
|--x--x--x--x--x--x--x--x-|--x--x--x--x-x--x-x-|
|-12-12-12-12-12-12-12-12-|-12-12-12-12-7--7-7-|
|--0--0--0--0--0--0--0--0-|--0--0--0--0-0--0-0-|


E E E E E E E E E E E E Q E E
|--0--0--0--0--0--0--0--0-|--0--0--0--0-0--0-0-|
|--0--0--0--0--0--0--0--0-|--0--0--0--0-0--0-0-|
|-11-11-11-11-11-11-11-11-|-11-11-11-11-6--6-6-|
|--x--x--x--x--x--x--x--x-|--x--x--x--x-x--x-x-|
|--9--9--9--9--9--9--9--9-|--9--9--9--9-4--4-4-|
|--0--0--0--0--0--0--0--0-|--0--0--0--0-0--0-0-|


E E E E E E E E E E E E Q E E
|-----0-0-0-0-0-0-|-0-0-0-0--0---0--0-|
|-----0-0-0-0-0-0-|-0-0-0-0--0---0--0-|
|-5-5-5-5-5-5-5-5-|-5-5-5-5-12--12-12-|
|-x-x-x-x-x-x-x-x-|-x-x-x-x--x---x--x-|
|-3-3-3-3-3-3-3-3-|-3-3-3-3-10--10-10-|
|-0-0-0-0-0-0-0-0-|-0-0-0-0--0---0--0-|


E E E E E E E E E E E E Q E E
|--0--0--0--0--0--0--0--0-|--0--0--0--0--0---0--0-|
|--0--0--0--0--0--0--0--0-|--0--0--0--0--0---0--0-|
|-11-11-11-11-11-11-11-11-|-11-11-11-11-12--12-12-|
|--x--x--x--x--x--x--x--x-|--x--x--x--x--x---x--x-|
|--9--9--9--9--9--9--9--9-|--9--9--9--9-10--10-10-|
|--0--0--0--0--0--0--0--0-|--0--0--0--0--0---0--0-|


E E E E Q E E E E E E Q E E
|--0--0--0--0--0---0--0-|--0--0--0--0-0--0-0-|
|--0--0--0--0--0---0--0-|--0--0--0--0-0--0-0-|
|-14-14-14-14-16--16-16-|-16-16-16-16-9--9-9-|
|--x--x--x--x--x---x--x-|--x--x--x--x-x--x-x-|
|-12-12-12-12-14--14-14-|-14-14-14-14-7--7-7-|
|--0--0--0--0--0---0--0-|--0--0--0--0-0--0-0-|


 EEEEEEEEEEEEEEEE
|--0--0--0--0--0--0--0--0-|--0--0--0--0---------|
|--0--0--0--0--0--0--0--0-|--0--0--0--0-0-0-0-0-|
|-11-11-11-11-11-11-11-11-|-11-11-11-11-0-0-0-0-|
|--x--x--x--x--x--x--x--x-|--x--x--x--x-0-0-0-0-|
|--9--9--9--9--9--9--9--9-|--9--9--9--9-0-0-3-0-|
|--0--0--0--0--0--0--0--0-|--0--0--0--0-0-0-0-0-|


 EEEEEEEEEEEEEEEEEEEEEEEEEEEEEEEE
|---0-3-0-2-0-0-0-|-2-0-2-0-2-3-----|---0-3-0-2-0-0-0-|-2-0-2-0-2-0-----|
|-0-0-3-0-2-0-0-0-|-2-0-2-0-2-3-----|-0-0-3-0-2-0-0-0-|-2-0-2-0-2-0-----|
|-0-0-0-0-0-0-0-0-|-0-0-0-0-0-0-0-0-|-0-0-0-0-0-0-0-0-|-0-0-0-0-0-0-0-0-|
|-0-0-0-0-0-0-0-0-|-0-0-0-0-0-0-0-0-|-0-0-0-0-0-0-0-0-|-0-0-0-0-0-0-0-0-|
|-3-3-3-3-3-3-3-3-|-3-3-3-3-3-0-3-0-|-3-3-3-3-3-3-3-3-|-3-3-3-3-3-0-3-0-|
|-0---------------|-----------0-0-0-|-0---------------|-----------0-0-0-|


 EEEEEEEEEEEEEEEEEEEEEEEEEEEEEE
|---0-3-0-2-0-0-0-|-2-0-2-0-2-3-----|---0-3-0-2-0-----|--------------|
|-0-0-3-0-2-0-0-0-|-2-0-2-0-2-3-----|-0-0-3-0-2-0-----|--------------|
|-0-0-0-0-0-0-0-0-|-0-0-0-0-0-0-0-0-|-0-0-0-0-0-0-5-5-|-5-x-x-8-x-x--|
|-0-0-0-0-0-0-0-0-|-0-0-0-0-0-0-0-0-|-0-0-0-0-0-0-x-0-|-x-x-x-x-x-x--|
|-3-3-3-3-3-3-3-3-|-3-3-3-3-3-0-3-0-|-3-3-3-3-3---3-0-|-3-x-x-6-x-x--|
|-0---------------|-----------0-0-0-|-0-----------0-0-|-0-0-0-0-0-0--|


 EEEEEEEEEEEEEEEE
|--------------|--------------|----------||
|--------------|--------------|----0-0-0-||
|-7-x-x-10-x-x-|-9-x-x-12-x-x-|-11-0-0-0-||
|-x-x-x--x-x-x-|-x-x-x--x-x-x-|--x-0-0-0-||
|-5-x-x--8-x-x-|-7-7-x-10-x-x-|--9-0-3-0-||
|-0-0-0--0-0-0-|-0-0-0--0-0-0-|--0-0-0-0-||


Chorus:

 EEEEEEEEEEEEEEEEEEEEEEEEEEEEEEEE
|---0-3-0-2-0-0-0-|-2-0-2-0-2-3-----|---0-3-0-2-0-0-0-|-2-0-2-0-2-0------|
|-0-0-3-0-2-0-0-0-|-2-0-2-0-2-3-----|-0-0-3-0-2-0-0-0-|-2-0-2-0-2-0------|
|-0-0-0-0-0-0-0-0-|-0-0-0-0-0-0-0-0-|-0-0-0-0-0-0-0-0-|-0-0-0-0-0-0-0-0--|
|-0-0-0-0-0-0-0-0-|-0-0-0-0-0-0-0-0-|-0-0-0-0-0-0-0-0-|-0-0-0-0-0-0-0-0--|
|-3-3-3-3-3-3-3-3-|-3-3-3-3-3-0-3-0-|-3-3-3-3-3-3-3-3-|-3-3-3-3-3-0-3-0--|
|-0---------------|-----------0-0-0-|-0---------------|-----------0-0-0--|


 EEEEEEEEEEEEEEEEEEEEEEEE
|---0-3-0-2-0-0-0-|-2-0-2-0-2-3-----|---0-3-0-2-0-----||
|-0-0-3-0-2-0-0-0-|-2-0-2-0-2-3-----|-0-0-3-0-2-0-----||
|-0-0-0-0-0-0-0-0-|-0-0-0-0-0-0-0-0-|-0-0-0-0-0-0-5-5-||
|-0-0-0-0-0-0-0-0-|-0-0-0-0-0-0-0-0-|-0-0-0-0-0-0-x-0-||
|-3-3-3-3-3-3-3-3-|-3-3-3-3-3-0-3-0-|-3-3-3-3-3---3-0-||
|-0---------------|-----------0-0-0-|-0-----------0-0-||


 3/42/4
  E E E E E E   E E E  E E E   E E E  E E  E    Q   E E
|-------------|--------------|---------------|-----------||
|-------------|--------------|---------------|----------o||
|-5-x-x-8-x-x-|-7-x-x-10-x-x-|-9-x-x-12-x-11-|-11--11-x--||
|-x-x-x-x-x-x-|-x-x-x--x-x-x-|-x-x-x--x-x--x-|--x---x-x--||
|-3-x-x-6-x-x-|-5-x-x--8-x-x-|-7-x-x-10-x--9-|--9---9-x-o||
|-0-0-0-0-0-0-|-0-0-0--0-0-0-|-0-0-0--0-0--0-|--0---0-0--||


Outro:

 4/4
  Q  E E E E E E   E E E E E E E E   E E E E E E E E
|------------0-0-|-0-0-0-0-0-0-0-0-|-0-0-0-0-0-0-0-0-|
|------------0-0-|-0-0-0-0-0-0-0-0-|-0-0-0-0-0-0-0-0-|
|-5--5-5-5-5-5-5-|-5-5-5-5-5-5-5-5-|-5-5-5-5-5-5-5-5-|
|-x--x-x-x-x-x-x-|-x-x-x-x-x-x-x-x-|-x-x-x-x-x-x-x-x-|
|-3--3-3-3-3-3-3-|-3-3-3-3-3-3-3-3-|-3-3-3-3-3-3-3-3-|
|-0--0-0-0-0-0-0-|-0-0-0-0-0-0-0-0-|-0-0-0-0-0-0-0-0-|


 EEEEEEEEEEEEEEEEEEEEEEEE
|-0-0-0-0-0-0-0-0-|-0-0-0-0-0-0-0-0-|-0-0-0-0--0--0--0--0-|
|-0-0-0-0-0-0-0-0-|-0-0-0-0-0-0-0-0-|-0-0-0-0--0--0--0--0-|
|-5-5-5-5-8-8-8-8-|-7-7-7-7-7-7-7-7-|-7-7-7-7-10-10-10-10-|
|-x-x-x-x-x-x-x-x-|-x-x-x-x-x-x-x-x-|-x-x-x-x--x--x--x--x-|
|-3-3-3-3-6-6-6-6-|-5-5-5-5-5-5-5-5-|-5-5-5-5--8--8--8--8-|
|-0-0-0-0-0-0-0-0-|-0-0-0-0-0-0-0-0-|-0-0-0-0--0--0--0--0-|


Q E E E E E E E E E E E E E E
|-0--0-0-0-0-0-0-|-0-0-0-0--0--0--0--0-|
|-0--0-0-0-0-0-0-|-0-0-0-0--0--0--0--0-|
|-9--9-9-9-9-9-9-|-9-9-9-9-12-12-12-12-|
|-x--x-x-x-x-x-x-|-x-x-x-x--x--x--x--x-|
|-7--7-7-7-7-7-7-|-7-7-7-7-10-10-10-10-|
|-0--0-0-0-0-0-0-|-0-0-0-0--0--0--0--0-|


Q E E E E E E E E E E E E E E
|--0---0--0--0--0--0--0-|--0--0--0--0--0--0--0--0-|
|--0---0--0--0--0--0--0-|--0--0--0--0--0--0--0--0-|
|-11--11-11-11-11-11-11-|-11-11-11-11-12-12-12-12-|
|--x---x--x--x--x--x--x-|--x--x--x--x--x--x--x--x-|
|--9---9--9--9--9--9--9-|--9--9--9--9-10-10-10-10-|
|--0---0--0--0--0--0--0-|--0--0--0--0--0--0--0--0-|


Q E E E E E E E E E E E E E E
|--0---0--0--0--0--0--0-|--0--0--0--0-0-0-0-0-|
|--0---0--0--0--0--0--0-|--0--0--0--0-0-0-0-0-|
|-14--14-14-14-14-14-14-|-14-14-14-14-8-8-8-8-|
|--x---x--x--x--x--x--x-|--x--x--x--x-x-x-x-x-|
|-12--12-12-12-12-12-12-|-12-12-12-12-6-6-6-6-|
|--0---0--0--0--0--0--0-|--0--0--0--0-0-0-0-0-|


Q E E E E E E E E E E E E E E
|-0--0-0-0-0-0-0-|-0-0-0-0--0--0--0--0-|
|-0--0-0-0-0-0-0-|-0-0-0-0--0--0--0--0-|
|-7--7-7-7-7-7-7-|-7-7-7-7-10-10-10-10-|
|-x--x-x-x-x-x-x-|-x-x-x-x--x--x--x--x-|
|-5--5-5-5-5-5-5-|-5-5-5-5--8--8--8--8-|
|-0--0-0-0-0-0-0-|-0-0-0-0--0--0--0--0-|


Q E E E E E E E E E E E E E E
|-0--0-0-0-0-0-0-|-0-0-0-0--0--0--0--0-|
|-0--0-0-0-0-0-0-|-0-0-0-0--0--0--0--0-|
|-9--9-9-9-9-9-9-|-9-9-9-9-12-12-12-12-|
|-x--x-x-x-x-x-x-|-x-x-x-x--x--x--x--x-|
|-7--7-7-7-7-7-7-|-7-7-7-7-10-10-10-10-|
|-0--0-0-0-0-0-0-|-0-0-0-0--0--0--0--0-|


Q E E E E E E E E E E Q E E
|--0---0--0--0--0--0--0-|--0--0--0--0--0---0--0-|
|--0---0--0--0--0--0--0-|--0--0--0--0--0---0--0-|
|-11--11-11-11-11-11-11-|-11-11-11-11-12--12-12-|
|--x---x--x--x--x--x--x-|--x--x--x--x--x---x--x-|
|--9---9--9--9--9--9--9-|--9--9--9--9-10--10-10-|
|--0---0--0--0--0--0--0-|--0--0--0--0--0---0--0-|


Q E E E E E E E E E E Q E E
|--0---0--0--0--0--0--0-|--0--0--0--0--------|
|--0---0--0--0--0--0--0-|--0--0--0--0--------|
|-14--14-14-14-14-14-14-|-14-14-14-14-7--7-7-|
|--x---x--x--x--x--x--x-|--x--x--x--x-x--x-x-|
|-12--12-12-12-12-12-12-|-12-12-12-12-5--5-5-|
|--0---0--0--0--0--0--0-|--0--0--0--0-0--0-0-|


Q E E E E E E E E E E E E E E
|----------------|-----------------|
|----------------|-----------------|
|-8--8-8-8-8-8-8-|-8-8-8-8-7-7-7-7-|
|-x--x-x-x-x-x-x-|-x-x-x-x-x-x-x-x-|
|-6--6-6-6-6-6-6-|-6-6-6-6-5-5-5-5-|
|-0--0-0-0-0-0-0-|-0-0-0-0-0-0-0-0-|


Q Q E E E E E E E E E E E E E E E E E E E E
|----0--0-0-0-0-|-0-0-0-0-0-0-0-0-|-0-0-0-0-0-0-0-0-|
|----0--0-0-0-0-|-0-0-0-0-0-0-0-0-|-0-0-0-0-0-0-0-0-|
|-5--5--5-5-5-5-|-5-5-5-5-5-5-5-5-|-5-5-5-5-5-5-5-5-|
|-0--0--0-0-0-0-|-0-0-0-0-0-0-0-0-|-0-0-0-0-0-0-0-0-|
|-3--3--3-3-3-3-|-3-3-3-3-3-3-3-3-|-3-3-3-3-3-3-3-3-|
|-0--0--0-0-0-0-|-0-0-0-0-0-0-0-0-|-0-0-0-0-0-0-0-0-|


End Triplet Feel Q=164
E E E E E E E E E E E E Q Q E E E E Q Q
|-0-0-0-0-0-0-0-0-|---------------|---------------|
|-0-0-0-0-0-0-0-0-|-------0-0--0--|-0-0-0-0-0--0--|
|-5-5-5-5-5-5-5-5-|-5-5---5-5--5--|-5-5-5-5-5--5--|
|-0-0-0-0-0-0-0-0-|-0-0---0-0--0--|-0-0-0-0-0--0--|
|-3-3-3-3-3-3-3-3-|-3-3---3-3--3--|-3-3-3-3-3--3--|
|-0-0-0-0-0-0-0-0-|-0-0-0-0-0--0--|-0-0-0-0-0--0--|


 EEEEEEEEEEEEEEEEEEEEEEEEEEEEEEEE
|-----------------|-----------------|-----------------|-----------------|
|-0-0-0-0-0-0-0-0-|-0-0-0-0-0-0-0-0-|-0-0-0-0-0-0-0-0-|-0-0-0-0-0-0-0-0-|
|-5-5-5-5-5-5-5-5-|-5-5-5-5-5-5-5-5-|-5-5-5-5-5-5-5-5-|-5-5-5-5-5-5-5-5-|
|-0-0-0-0-0-0-0-0-|-0-0-0-0-0-0-0-0-|-0-0-0-0-0-0-0-0-|-0-0-0-0-0-0-0-0-|
|-3-3-3-3-3-3-3-3-|-3-3-3-3-3-3-3-3-|-3-3-3-3-3-3-3-3-|-3-3-3-3-3-3-3-3-|
|-0-0-0-0-0-0-0-0-|-0-0-0-0-0-0-0-0-|-0-0-0-0-0-0-0-0-|-0-0-0-0-0-0-0-0-|


E E E E E E E E E E E E E E E E E E E E E E E E E E E E Q Q
|-----------------|-----------------|-----------------|---------------|
|-0-0-0-0-0-0-0-0-|-0-0-0-0-0-0-0-0-|-0-0-0-0-0-0-0-0-|-0-0-0-0-0--0--|
|-5-5-5-5-5-5-5-5-|-5-5-5-5-5-5-5-5-|-5-5-5-5-5-5-5-5-|-5-5-5-5-5--5--|
|-0-0-0-0-0-0-0-0-|-0-0-0-0-0-0-0-0-|-0-0-0-0-0-0-0-0-|-0-0-0-0-0--0--|
|-3-3-3-3-3-3-3-3-|-3-3-3-3-3-3-3-3-|-3-3-3-3-3-3-3-3-|-3-3-3-3-3--3--|
|-0-0-0-0-0-0-0-0-|-0-0-0-0-0-0-0-0-|-0-0-0-0-0-0-0-0-|-0-0-0-0-0--0--|


E E E E E E E E E E E E Q Q +W W
|-----------------|---------------|------------|------*|
|-0-0-0-0-0-0-0-0-|-0-0-0-0-0--0--|-(0)--------|------*|
|-5-5-5-5-5-5-5-5-|-5-5-5-5-5--5--|-(5)--------|------*|
|-0-0-0-0-0-0-0-0-|-0-0-0-0-0--0--|-(0)--------|------*|
|-3-3-3-3-3-3-3-3-|-3-3-3-3-3--3--|-(3)--------|------*|
|-0-0-0-0-0-0-0-0-|-0-0-0-0-0--0--|-(0)--------|------*|				



E
variations - click chord images
Transpose chords:
Tuning:
Cool service:
View: Size:
A  A  A
Rating:
Layout:
  • Currently 3.1/5 Stars.
  • 1
  • 2
  • 3
  • 4
  • 5
 
Accuracy:
  • Currently 3/5 Stars.
  • 1
  • 2
  • 3
  • 4
  • 5
 
click stars to rate
Chordie recommends:
Check out JamPlay.com for online video guitar lessons
Songbook:
Login to add this song to your songbook
Support the artist
Preview/buy this song
MSN Music
Why this non-profit ad?

 
login to add comments/video/corrections