Chordie logo

The Rover     Led Zeppelin



|----------------|----------------|----------------|----------------|
|----------------|----------------|----------------|----------------|
|----------------|----------------|----------------|----------------|
|----------------|----------------|----------------|-------------2-2|
|----------------|----------------|----------------|-------------2-2|
|----------------|----------------|----------------|-------------0-0|

|----------------|----------------|----------------|---2p0--0h2p0--0|
|----------------|----------------|----------------|-------5------5-|
|----------------|----------------|----------------|----------------|
|----------------|----------------|----------------|----------------|
|-2--------------|---------------5|-/7-------------|----------------|
|-0--------------|-3-3-5-5-3-5-3--|----------------|----------------|

|----------------|----------------|----------------|-----0----------|
|----------------|----------------|----------------|-----7p5--------|
|----------------|----------------|----------------|---------0------|
|-2--------------|----------------|----------------|---------7\5-2p0|
|-2--------------|---------------5|-/7-----------p0|----------------|
|-0--------------|-3-3-5-5-3-5-3--|----------------|----------------|

|----------------|----------------|----------------|----------------|
|----------------|----------------|----------------|----------------|
|---------3b-0---|----------------|---------3b-0---|----------------|
|----4b-2------2-|-2-0---0-2------|----4b-2------2-|-2-0---0-2------|
|----------------|----------------|----------------|----------------|
|-0--------------|-----------2b-0-|-0--------------|-----------2b-0-|

|----------------|----------------|----------------|----------------|
|----------------|----------------|----------------|----------------|
|---------3b-0---|----------------|---------3b-0---|----------------|
|----4b-2------2-|-2-0---0-2------|----4b-2------2-|-2-0---0-2------|
|----------------|----------------|----------------|----------------|
|-0--------------|-----------2b-0-|-0--------------|-----------2b-0-|

|----------------|----------------|----------------|----------------|
|----------------|----------------|----------------|----------------|
|--11--11\9-9--9-|-7----------7/12|\11-11-11-14-14-|-9----------9/12|
|--11--11\9-9--9-|-7----------7/12|\11-11-11-14-14-|-9----------9/12|
|---9---9\7-7--7-|-5----------5/10|\-9--9--9-12-12-|-7----------7/10|
|----------------|----------------|----------------|----------------|

|----------------|----------------|----------------|----------------|
|----------------|----------------|----------------|----------------|
|-\11--11\9-9--9-|-7----------7/12|\11-11-11-14-14-|-9----------9/12|
|-\11--11\9-9--9-|-7----------7/12|\11-11-11-14-14-|-9----------9/12|
|-\-9---9\7-7--7-|-5----------5/10|\-9--9--9-12-12-|-7----------7/10|
|----------------|----------------|----------------|----------------|

|----------------|----------------|----------------|----------------|
|----------------|----------------|----------------|----------------|
|\11-11-11--9--9-|-7--7-7-7\--6-6-|-4--4--4-4------|--------0-------|
|\11-11-11--9--9-|-7--7-7-7\--6-6-|-4--4--4-4------|----------------|
|\-9--9--9--7--7-|-5--5-5-5\--4-4-|-2--2--2-2------|--2-1-0---------|
|----------------|----------------|----------------|----------3-2-0-|

|----------------|----------------|----------------|----------------|
|----------------|----------------|----------------|---2b---0-------|
|---------3b-0---|----------------|---------3b-0---|----------0-----|
|----4b-2------2-|--2-0---0-2-----|----4b-2------2~|------------2---|
|----------------|----------------|----------------|----------------|
|-0--------------|-----------2b-0-|-0--------------|--------------0-|

|----------------|----------------|----------------|----------------|
|----------------|----------------|----------------|----------------|
|---------3b-0---|----------------|---------3b-0---|----------------|
|----4b-2------2-|--2-0---0-2-----|----4b-2------2-|--2-0---0-2-----|
|----------------|----------------|----------------|----------------|
|-0--------------|-----------2b-0-|-0--------------|-----------2b-0-|

|----------------|----------------|--------------9-|-7--------------|
|------10------9-|--7-------------|------10--------|----------------|
|----11------9---|----------------|----11-----11---|----------------|
|4-11------9-----|----------------|--11-----11-----|----------------|
|4---------------|----------------|----------------|----------------|
|2---------------|----------------|----------------|----------------|
|		 |		  |		   |		    |
|----------------|----------------|----------------|----------------|
|----------------|----------------|----------------|----------------|
|--11--11\9-9--9-|-7----------7/12|\11-11-11-14-14-|-9----------9/12|
|--11--11\9-9--9-|-7----------7/12|\11-11-11-14-14-|-9----------9/12|
|---9---9\7-7--7-|-5----------5/10|\-9--9--9-12-12-|-7-(10)r9---7/10|
|----------------|----------------|----------------|----------------|

|----------------|----------------|--------------9-|-7--------------|
|------10------9-|--7-------------|------10--------|----------------|
|----11------9---|----------------|----11-----11---|----------------|
|--11------9-----|----------------|--11-----11-----|----------------|
|----------------|----------------|----------------|----------------|
|----------------|----------------|----------------|----------------|
|		 |		  |		   |		    |
|----------------|----------------|----------------|----------------|
|----------------|----------------|----------------|----------------|
|-\11--11\9-9--9-|-7----------7/12|\11-11-11-14-14-|-9----------9/12|
|-\11--11\9-9--9-|-7----------7/12|\11-11-11-14-14-|-9----------9/12|
|-\-9---9\7-7--7-|-5----------5/10|\-9--9--9-12-12-|-7----------7/10|
|----------------|----------------|----------------|----------------|

|----------------|----------------|----------------|----------------|
|------10------9-|------7-------5-|------3---------|----------------|
|----11------9---|----7-------6---|----4-----------|----------------|
|--11------9-----|--7-------6-----|--4-------------|----------------|
|----------------|----------------|----------------|----------------|
|----------------|----------------|----------------|----------------|
|		 |		  |		   |		    |
|----------------|----------------|----------------|----------------|
|----------------|----------------|----------------|----------------|
|\11-11-11--9--9-|-7--7-7-7\--6-6-|-4--4--4-4------|----------------|
|\11-11-11--9--9-|-7--7-7-7\--6-6-|-4--4--4-4------|--------2b------|
|\-9--9--9--7--7-|-5--5-5-5\--4-4-|-2--2--2-2------|--2-1-0---------|
|----------------|----------------|----------------|----------3-2-0-|

|----------------|----------------|----------------|----------------|
|----------------|----------------|----------------|---2b---0-------|
|---------3b-0---|----------------|---------3b-0---|----------0-----|
|----4b-2------2-|--2-0---0-2-----|----4b-2------2~|------------2---|
|----------------|----------------|----------------|----------------|
|-0--------------|-----------2b-0-|-0--------------|--------------0-|

|----------------|----------------|----------------|----------------|
|----------------|----------------|----------------|----------------|
|---------3b-0---|----------------|---------3b-0---|----------------|
|----4b-2------2-|--2-0---0-2-----|----4b-2------2-|--2-0---0-2-----|
|----------------|----------------|----------------|----------------|
|-0--------------|-----------2b-0-|-0--------------|-----------2b-0-|

|----------------|----------------|--------------9-|-7--------------|
|------10------9-|--7-------------|------10--------|----------------|
|----11------9---|----------------|----11-----11---|----------------|
|4-11------9-----|----------------|--11-----11-----|----------------|
|4---------------|----------------|----------------|----------------|
|2---------------|----------------|----------------|----------------|
|		 |		  |		   |		    |
|----------------|----------------|----------------|----------------|
|----------------|----------------|----------------|----------------|
|--11--11\9-9--9-|-7----------7/12|\11-11-11-14-14-|-9----------9/12|
|--11--11\9-9--9-|-7----------7/12|\11-11-11-14-14-|-9----------9/12|
|---9---9\7-7--7-|-5----------5/10|\-9--9--9-12-12-|-7-(10)r9---7/10|
|----------------|----------------|----------------|----------------|

|----------------|----------------|--------------9-|-7--------------|
|------10------9-|--7-------------|------10--------|----------------|
|----11------9---|----------------|----11-----11---|----------------|
|--11------9-----|----------------|--11-----11-----|----------------|
|----------------|----------------|----------------|----------------|
|----------------|----------------|----------------|----------------|
|		 |		  |		   |		    |
|----------------|----------------|----------------|----------------|
|----------------|----------------|----------------|----------------|
|-\11--11\9-9--9-|-7----------7/12|\11-11-11-14-14-|-9-----9-11-9/12|
|-\11--11\9-9--9-|-7----------7/12|\11-11-11-14-14-|-9--9h11-11-9/12|
|-\-9---9\7-7--7-|-5----------5/10|\-9--9--9-12-12-|-79h11----9-7/10|
|----------------|----------------|----------------|----------------|

|----------------|----------------|----------------|----------------|
|------10------9-|------7-------5-|------3---------|----------------|
|----11------9---|----7-------6---|----4-----------|----------------|
|--11------9-----|--7-------6-----|--4-------------|----------------|
|----------------|----------------|----------------|----------------|
|----------------|----------------|----------------|----------------|
|		 |		  |		   |		    |
|----------------|----------------|----------------|----------------|
|----------------|----------------|----------------|----------------|
|\11-11-11--9--9-|-7--7-7-7\--6-6-|-4--4--4-4------|----------------|
|\11-11-11--9--9-|-7--7-7-7\--6-6-|-4--4--4-4------|--------2b------|
|\-9--9--9--7--7-|-5--5-5-5\--4-4-|-2--2--2-2------|--2-1-0---------|
|----------------|----------------|----------------|----------3-2-0-|

|----------------|----------------|----------------|----------------|
|-7-7-7--7--9-9\-|----------------|-7-7-7--7--9-9\-|----------------|
|-7-7-7--7--9-9\-|----------------|-7-7-7--7--9-9\-|----------------|
|-7-7-7--7--9-9\-|----------------|-7-7-7--7--9-9\-|----------------|
|-5-5-5--5--7-7\-|----------------|-5-5-5--5--7-7\-|----------------|
|----------------|-----------0----|----------------|-----------0----|

|----------------|----------------|----------------|----------------|
|-7-7-7--7--9-9\-|----------------|-7-7-7--7--9-9\-|----------------|
|-7-7-7--7--9-9\-|----------------|-7-7-7--7--9-9\-|----------------|
|-7-7-7--7--9-9\-|----------------|-7-7-7--7--9-9\-|----------------|
|-5-5-5--5--7-7\-|----------------|-5-5-5--5--7-7\-|----------------|
|----------------|-----------0----|----------------|-----------0----|

|----------------|----------------|----------------|----------------|
|----------------|----------------|----------------|----------------|
|----------------|----------------|----------------|--------------9-|
|----------------|----------------|----------------|--------9h11----|
|----------------|----------------|----------------|--9h11----------|
|----------------|----------------|----------------|----------------|
|		 |		  |		   |		    |
|----------------|----------------|----------------|----------------|
|-7-7-7--7--9-9\-|----------------|-7-7-7--7--9-9\-|----------------|
|-7-7-7--7--9-9\-|----------------|-7-7-7--7--9-9\-|----------------|
|-7-7-7--7--9-9\-|----------------|-7-7-7--7--9-9\-|----------------|
|-5-5-5--5--7-7\-|----------------|-5-5-5--5--7-7\-|----------------|
|----------------|-----------0----|----------------|-----------0----|

|----------------|----------------|----------------|----------------|
|----------------|----------------|----------------|----------------|
|----------------|----------------|----------------|-----------9-11\|
|----------------|----------------|----------------|------9h11------|
|----------------|----------------|----------------|-9h11-----------|
|----------------|----------------|----------------|----------------|
|		 |		  |		   |		    |
|----------------|----------------|----------------|----------------|
|-7-7-7--7--9-9\-|----------------|-7-7-7--7--9-9\-|----------------|
|-7-7-7--7--9-9\-|----------------|-7-7-7--7--9-9\-|----------------|
|-7-7-7--7--9-9\-|----------------|-7-7-7--7--9-9\-|----------------|
|-5-5-5--5--7-7\-|----------------|-5-5-5--5--7-7\-|----------------|
|----------------|-----------0----|----------------|-----------0----|

|----------------|----------------|----------------|----------------|
|----------------|----------------|----------------|9h10p9--9-10-12-|
|----------------|----------------|---------9--11--|------11--------|
|--------------7-|-9//11-9h11p9-7-|----9/11--------|----------------|
|----------7-9---|----------------|----------------|----------------|
|----5/7h9-------|----------------|----------------|----------------|

|-9--------------|----------------|----------------|-----------9----|
|---12-10b-9-----|----------------|---------9h10p9-|---9-10-12---12-|
|------------11-9|--------9-11-11-|-----9-11-------|-11-------------|
|----------------|---9h11---------|-9h11-----------|----------------|
|----------------|----------------|----------------|----------------|
|----------------|----------------|----------------|----------------|

|----------------|----------------|----------------|----------------|
|-9h10p9----9----|----------------|----------------|----------------|
|--------11--11p9|-11p9----9----9-|----------------|----------------|
|----------------|------11---11---|-11\9-x-7--11p9-|-7------7-9//11-|
|----------------|----------------|----------------|------9---------|
|----------------|----------------|----------------|----------------|

|----------------|----------------|----------------|---------14-----|
|----------------|----------------|----------------|------14----17--|
|-9-9-9-9--------|-9-9-9-9--------|-9-9-9-9--------|---16b----------|
|-----------9/11-|----------9//11-|----------------|----------------|
|----------------|----------------|----------------|----------------|
|----------------|----------------|----------------|----------------|

|-----17---------|-17----------17-|--------17------|----------------|
|-17b----r17-14--|----r17-14------|-r17-14----r17--|14-14-----------|
|----------------|----------------|----------------|-----16-14------|
|----------------|----------------|----------------|----------16-14-|
|----------------|----------------|----------------|----------------|
|----------------|----------------|----------------|----------------|

|----------------|----------------|----------------|----------------|
|----------------|----------------|----------------|----------------|
|---------3b-0---|----------------|---------3b-0---|-3b--3b--0------|
|----4b-2------2-|--2-0---0-2-----|----4b-2------2-|------------2---|
|----------------|----------------|----------------|----------------|
|-0--------------|-----------2b-0-|-0--------------|--------------0-|

|----------------|----------------|----------------|--------------0-|
|----------------|----------------|----------------|-------------0--|
|---------3b-0---|----------------|---------3b-0---|---------3b-0---|
|----4b-2------2-|--2-0---0-2-----|----4b-2------2-|-4b-4b-2--------|
|----------------|----------------|----------------|----------------|
|-0--------------|-----------2b-0-|-0--------------|----------------|

|----------------|----------------|--------------9-|-7--------------|
|------10------9-|--7-------------|------10--------|----------------|
|----11------9---|----------------|----11-----11---|----------------|
|--11------9-----|----------------|--11-----11-----|----------------|
|----------------|----------------|----------------|----------------|
|----------------|----------------|----------------|----------------|
|		 |		  |		   |		    |
|----------------|----------------|----------------|----------------|
|----------------|----------------|----------------|----------------|
|-\11--11\9-9--9-|-7----------7/12|\11-11-11-14-14-|-9-----9-11-9/12|
|-\11--11\9-9--9-|-7----------7/12|\11-11-11-14-14-|-9--9h11-11-9/12|
|-\-9---9\7-7--7-|-5----------5/10|\-9--9--9-12-12-|-79h11----9-7/10|
|----------------|----------------|----------------|----------------|

|----------------|----------------|--------------9-|-7--------------|
|------10------9-|--7-------------|------10--------|----------------|

|----11------9---|----------------|----11-----11---|----------------|
|4-11------9-----|----------------|--11-----11-----|----------------|
|4---------------|----------------|----------------|----------------|
|2---------------|----------------|----------------|----------------|
|		 |		  |		   |		    |
|----------------|----------------|----------------|----------------|
|----------------|----------------|----------------|----------------|
|--11--11\9-9--9-|-7----------7/12|\11-11-11-14-14-|-9----------9/12|
|--11--11\9-9--9-|-7----------7/12|\11-11-11-14-14-|-9----------9/12|
|---9---9\7-7--7-|-5----------5/10|\-9--9--9-12-12-|-7----------7/10|
|----------------|----------------|----------------|----------------|

|----------------|----------------|----------------|----------------|
|------10------9-|------7-------5-|------3---------|----------------|
|----11------9---|----7-------6---|----4-----------|----------------|
|--11------9-----|--7-------6-----|--4-------------|----------------|
|----------------|----------------|----------------|----------------|
|----------------|----------------|----------------|----------------|
|		 |		  |		   |		    |
|----------------|----------------|----------------|----------------|
|----------------|----------------|----------------|----------------|
|\11-11-11--9--9-|-7--7-7-7\--6-6-|-4--4--4-4------|----------------|
|\11-11-11--9--9-|-7--7-7-7\--6-6-|-4--4--4-4------|--------2b------|
|\-9--9--9--7--7-|-5--5-5-5\--4-4-|-2--2--2-2------|--2-1-0---------|
|----------------|----------------|----------------|----------3-2-0-|

|----------------|----------------|----------------|----------------|
|----------------|----------------|----------------|----------------|
|---------3b-0---|----------------|---------3b-0---|----------------|
|----4b-2------2-|-2-0---0-2------|----4b-2------2-|-2-0---0-2------|
|----------------|----------------|----------------|----------------|
|-0--------------|-----------2b-0-|-0--------------|-----------2b-0-|

|----------------|----------------|----------------|--------------0-|
|----------------|----------------|----------------|---------2----5-|
|---------3b-0---|----------------|---------3b-0---|-------3b--2h3--|
|----4b-2------2-|-2-0---0-2------|----4b-2------2-|-4b-4b----------|
|----------------|----------------|----------------|----------------|
|-0--------------|-----------2b-0-|-0--------------|----------------|

|----------------|----------------|--------------9-|-7--------------|
|------10------9-|--7-------------|------10--------|----------------|
|----11------9---|----------------|----11-----11---|----------------|
|--11------9-----|----------------|--11-----11-----|----------------|
|----------------|----------------|----------------|----------------|
|----------------|----------------|----------------|----------------|
|		 |		  |		   |		    |
|----------------|----------------|----------------|----------------|
|----------------|----------------|----------------|----------------|
|-\11--11\9-9--9-|-7----------7/12|\11-11-11-14-14-|-9-----9-11-9/12|
|-\11--11\9-9--9-|-7----------7/12|\11-11-11-14-14-|-9--9h11-11-9/12|
|-\-9---9\7-7--7-|-5----------5/10|\-9--9--9-12-12-|-79h11----9-7/10|
|----------------|----------------|----------------|----------------|

|----------------|----------------|--------------9-|-7--------------|
|------10------9-|--7-------------|------10--------|----------------|
|----11------9---|----------------|----11-----11---|----------------|
|4-11------9-----|----------------|--11-----11-----|----------------|
|4---------------|----------------|----------------|----------------|
|2---------------|----------------|----------------|----------------|
|		 |		  |		   |		    |
|----------------|----------------|----------------|----------------|
|----------------|----------------|----------------|----------------|
|--11--11\9-9--9-|-7----------7/12|\11-11-11-14-14-|-9----------9/12|
|--11--11\9-9--9-|-7----------7/12|\11-11-11-14-14-|-9----------9/12|
|---9---9\7-7--7-|-5----------5/10|\-9--9--9-12-12-|-7----------7/10|
|----------------|----------------|----------------|----------------|

|----------------|----------------|----------------|----------------|
|------10------9-|------7-------5-|------3---------|----------------|
|----11------9---|----7-------6---|----4-----------|----------------|
|--11------9-----|--7-------6-----|--4-------------|----------------|
|----------------|----------------|----------------|----------------|
|----------------|----------------|----------------|----------------|
|		 |		  |		   |		    |
|----------------|----------------|----------------|----------------|
|----------------|----------------|----------------|----------------|
|\11-11-11--9--9-|-7--7-7-7\--6-6-|-4--4--4-4------|----------------|
|\11-11-11--9--9-|-7--7-7-7\--6-6-|-4--4--4-4------|--------2b------|
|\-9--9--9--7--7-|-5--5-5-5\--4-4-|-2--2--2-2------|--2-1-0---------|
|----------------|----------------|----------------|----------3-2-0-|

|----------------|----------------|----------------|----------------|
|----------------|----------------|----------------|---2b---0-------|
|---------3b-0---|----------------|---------3b-0---|----------0-----|
|----4b-2------2-|--2-0---0-2-----|----4b-2------2~|------------2---|
|----------------|----------------|----------------|----------------|
|-0--------------|-----------2b-0-|-0--------------|--------------0-|

|----------------|----------------|----------------|----------------|
|----------------|----------------|------------0---|----------------|
|---------3b-0---|----------------|---------3b-3b--|-0-0------------|
|----4b-2------2-|--2-0---0-2-----|----4b-2--------|-----2-0--------|
|----------------|----------------|----------------|----------------|
|-0--------------|-----------2b-0-|-0--------------|----------------|

|----------------|----------------|----------------|----------0---0-|
|----------------|----------------|----------------|---------0---0-0|
|-------3b----2--|-------3b----2--|-------3b----2--|------3b--(4)---|
|-4b-4b----6b----|-4b-4b----6b----|-4b-4b----6b----|-4b-4b----------|
|----------------|----------------|----------------|----------------|
|----------------|----------------|----------------|----------------|

|----------------|----------------|----------------|----------------|
|----------------|----------------|----------------|----------------|
|----------------|----------------|-------------0--|-----0h2-2p0----|
|-----2-2-2-4-2--|-2-0-----0h2----|-0---0-0---0----|-0h2---------2--|
|-0h2------------|----------------|----------------|----------------|
|--------------0-|-----0----------|----------------|--------------0-|

|----------------|----------------|----------------|----------------|
|----------------|----------------|----------------|----------------|
|-----0h2-2-0----|-----0h2-2x0----|----0-0-----0-0-|-0-0h2p0--------|
|-0h2---------0h2|-0h2---------0h2|-0h2----0h2-----|---------2------|
|----------------|----------------|----------------|----------------|
|----------------|----------------|----------------|------------0---|

|----------------|----------------|----------------|----------------|
|----------------|----------------|----------------|---x------------|
|----0-0-----0-0-|-0-0h2p0--------|-0---5-5-----5-5|-5-7-5----------|
|-0h2----0h2-----|---------2------|-5h7-----5h7----|-------2--------|
|----------------|----------------|----------------|----------------|
|----------------|------------0---|----------------|------------0---|

Repeat final 2 measures until fade out
_____________________________________________________________________

Tablature Legend:

h	Hammer-on
p	Pull-off
b	Bend note
r	Return from bend
x	Dampened note
/	Slide up
\	Slide down
//	Gliss up
~	Vibrato
_____________________________________________________________________

Lyrics:
I've been to London, seen seven wonders
I know to trip is just to fall
I used to rock it, sometimes I'd roll it
I always knew what it was for

There can be no denying
That the wind will shake 'em down 
And the flat world's flying
There's a new plague on the land 

If we could just join hands
If we could just join hands
If we could just join...

Traversed the planet
When heaven sent me
I saw the kings who rule them all
Still by the firelight
And purple moonlight
I hear the rested rivers call
And the wind is crying
From a love that won't grow cold
My lover, she is lying,
On the dark side of the globe

If we could just join hands
If we could just join hands
If we could just join hands

Yeah yeah, yeah yeah, yeah yeah, yeah yeah,
Yeah yeah, yeah yeah, yeah yeah,

You got me rockin' when I ought to be a-rollin' 
Darlin', tell me, darlin', which way to go 
You keep me rockin', baby, then you keep me stolen 
Won't you tell me, darlin', which way to go

That's right 

Oh how I wonder
Oh how I worry
And I would dearly like to know 
I've all this wonder
Of earthly plunder
Will it leave us anything to show 

And our time is flying
See the candle burning low 
Is the new world rising,
From the shambles of the old 

If we could just join hands
If we could just join hands
If we could just, if we could just,
If we could just, if we could just,
If we could just join hands

Hey, that's all it takes, that's all it takes
That's all it takes, that's all it takes

Yeah yeah, yeah yeah, yeah yeah, yeah yeah,
Yeah yeah, yeah yeah, yeah yeah, yeah yeah,
Yeah yeah, yeah yeah, yeah yeah, yeah yeah,
Yeah yeah, ooh yeah

Aah! Aah!
That's right! That's right!


Important: The song above is NOT stored on the Chordie server. The original song is hosted at www.guitaretab.com. Chordie works as a search engine and provides on-the-fly formatting. Chordie does not index songs against artists/composers will. To remove this song please click here.

This song is displayed as text-only. Transposing and tuning is only available for chordpro-songs.

Rating click stars to rate

Layout
Accuracy

SHARE PAGE  

You need to log in to post comments