The Song Remains The Same
Jimmy Page & Robert Plant Guitar
E||-------2--------------|-------2--------------|--2----2----------------------| B||-------3--------------|-------3--------------|--3----3----------------------| G||-------0--------------|-------0--------------|--2----2----------------7-----| D||-------2--------------|-------2--------------|--0----0--------7-9-7-----9-7-| A||--0-------------------|--0-----------3b--3b--|----------5h7/9-------9-------| E||--------------3b--3b--|----------------------|------------------------------|
--------------------------|--7----------------------------| --7-----------------------|-------------------------------| ----7-----7-6-7-------9/--|--11--7---7-9-7---7--x---7--9b-| ------9-7-----7-----------|--------9-------9------9-------| --------------------------|-------------------------------| --------------------------|-------------------------------|
---7------10-7-----------------------|----------------------------------| -----10-7------10-7-10-7-------------|--------------------------0---0---| -------------------------9-7-9-7-----|--9---7-9-7---9---7-9-7---9---7-9-| ---------------------------------9-7-|----9-------9---9-------9---9-----| -------------------------------------|----------------------------------| -------------------------------------|----------------------------------|
-------------------------------|-------12/14-----14/15----17----17----| ------0---0--------------------|--------------------------------------| --7---9---7-9-7---9---7-9-7/---|--12----------14-------16/17-------17/| ----9---9-------9---9----------|--------------------------------------| -------------------------------|--------------------------------------| -------------------------------|--------------------------------------|
-----15--------14--------12--------10----|--------8----------8----------8----| -----------------------------------------|-----------------------------------| --16----16/-14----14/-12----12/-10----9/-|--10---------10---------10---------| -----------------------------------------|-----------------------------------| -----------------------------------------|-----------------------------------| -----------------------------------------|-----------------------------------|
--7------------10----12----|--14----12----10----12----10----9----| ---------------------------|-------------------------------------| --7------------10----12----|--14----12----10----12----10----9----| ---------------------------|-------------------------------------| ---------------------------|-------------------------------------| ---------------------------|-------------------------------------|
--10----9----7----9----7----5--10/-| -----------------------------------| --10----9----7----9----7----6--10/-|
-----------------------------------| -----------------------------------| -----------------------------------|
--12-----10------9------10-------12-------14-| ---------------------------------------------| --12--10----10/9---9/10----10/12----12/14----| ---------------------------------------------| ---------------------------------------------| ---------------------------------------------|
--------12-------10-------12-------14-------12----| --------------------------------------------------| --14/12----12/10----10/12----12/14----14/12----12/| --------------------------------------------------| --------------------------------------------------| --------------------------------------------------|
-----10-------12-------14-------12-------10------| -------------------------------------------------| --10----10/12----12/14----14/12----12/10----10/9-| -------------------------------------------------| -------------------------------------------------| -------------------------------------------------|
--9------10------9------10------9-----7-|------9-----7-----9-----7-----5---| ----------------------------------------|----------------------------------| ----9/10----10/9---9/10----10/9---9/7---|--7/9---9/7---7/9---9/7---7/6---6-| ----------------------------------------|----------------------------------| ----------------------------------------|----------------------------------| ----------------------------------------|----------------------------------|
----5-----7-----9-----7-----5-----|--5----5----5----5----5-3---| ----------------------------------|----------------------------| --6---6/7---7/9---9/7---7/6---6-6-|----6----6----6----6--------| ----------------------------------|----------------------------| ----------------------------------|----------------------------| ----------------------------------|----------------------------|
--5-3----------------------------|--2----------------|| ------5-3-5-3--------------------|--3----------------|| --------------4-2-4-2------------|--2----------------|| ----------------------4-2-4-2-0--|--0----------------|| ---------------------------------|-------------------|| ---------------------------------|-------------------||


























variations - click chord images
Transpose chords:
Tuning:
Cool service:
View: Size:
A  A  A
Rating:
Layout:
  • Currently 0/5 Stars.
  • 1
  • 2
  • 3
  • 4
  • 5
 
Accuracy:
  • Currently 3.2/5 Stars.
  • 1
  • 2
  • 3
  • 4
  • 5
 
click stars to rate
Chordie recommends:
Check out JamPlay.com for online video guitar lessons
Songbook:
Login to add this song to your songbook
Support the artist
Preview/buy this song
MSN Music
Why this non-profit ad?

 
login to add comments/video/corrections