Chordie logo

Bank Robber Man   Lenny Kravitz



Lenny Kravitz
Bank Robber Man
Lenny

Tabbed by Mads Kieler  (Denmark)

A very cool rock'n'roll song from Lenny Kravitz!


Intro:

E---------------|
H---------------|
g---------------|    4x
D---------------|
A---------------|
E-3-0-1-2-3-0-1-|


Vers: (when the drums comes on)

E---------------------|
H---------------------|
G---------------------|    x3
D---------------------|
A---------------------|
E-3-0-1-2-3-0-1-------|

the 4th time

E----------------------------|
H----------------------------|
g---------------5-5-5-5-5----|
D---------------5-5-5-5-5----|
A---------------3-3-3-3-3----|
E-3-0-1-2-3-0-1--------------|


Chorus:

E------------------------------------|
H------------------------------------|
G------------------------------------|
D-7-7-7-7-7-7-7-10-10-10-10-10-10-10-|
A-7-7-7-7-7-7-7-10-10-10-10-10-10-10-|
E-5-5-5-5-5-5-5-8--8--8--8--8--8--8--|

E---------------------|
H---------------------|
g---------------------|    2x
D---------------------|
A---------------------|
E-3-0-1-2-3-0-1-3-----|

The 4th time

E----------------------------------------------------|
H----------------------------------------------------|
G----------------------------------------------------|
D-7-7-7-7-7-7-7-10-10-10-10-10-10-10-12-12-12-12-----|
A-7-7-7-7-7-7-7-10-10-10-10-10-10-10-12-12-12-12-----|
E-5-5-5-5-5-5-5-8--8--8--8--8--8--8--10-10-10-10-----|


C:

E-------------------------------------|
H-------------------------------------|
G-9-9-9-9-9-9-9-----------------------|     2x
D-9-9-9-9-9-9-9-10-10-10-10-10-10-10--|
A-7-7-7-7-7-7-7-10-10-10-10-10-10-10--|
E---------------8--8--8--8--8--8--8---|

The 3th time


E-----------------------------------------------------|
H-----------------------------------------------------|
G-9-9-9-9-9-9-9---------------------------------------|
D-9-9-9-9-9-9-9-10-10-10-10-10-10-10-12-12-12-12------|
A-7-7-7-7-7-7-7-10-10-10-10-10-10-10-12-12-12-12------|
E---------------8--8--8--8--8--8--8--10-10-10-10------|



Important: The song above is NOT stored on the Chordie server. The original song is hosted at www.guitaretab.com. Chordie works as a search engine and provides on-the-fly formatting. Chordie does not index songs against artists/composers will. To remove this song please click here.

This song is displayed as text-only. Transposing and tuning is only available for chordpro-songs.

Login - add to songbook

Rating click stars to rate

Layout
Accuracy

SHARE PAGE  



You need to log in to post comments