Guitar Tabs, Chords and Lyrics


Hallelujah   Leonard Cohen



Hallelujah by Leonard Cohen
Submitted by Brandon

Intro
|-----0--------0-------0--------0-|
|-----1--------1-------1--------1-|
|----0--------2-------0--------2--|
|---2--------2-------2--------2---|
|--3------2-0-----2-3------2-0----|
|---------------------------------|2x

Verse
|-----0--------0-------0--------0-|
|-----1--------1-------1--------1-|
|----0--------2-------0--------2--|
|---2--------2-------2--------2---|
|--3------2-0-----2-3------2-0----|
|---------------------------------|

|----111--111----0---3-|
|----111--111----1---0-|
|---2----2------0---0--|
|--3----3------2-------|
|-------------3----2---|
|-----------------3----|Repeat

Chorus
|----111--111---000--000-|
|----111--111---111--111-|
|---2----2-----2----2----|
|--3----3-----2----2-----|
|------------0----0------|
|------------------------|
Hallelujah, Hallelujah

|----111--111----0---3---|
|----111--111----1---0---|
|---2----2------0---0----|
|--3----3------2---------|
|-------------3----2-----|
|-----------------3------|
Halellujah, Hallelu-u-u-jah

Verse

Chorus

Repeat the verse and Chorus through the entire song.



Important: The song above is NOT stored on the Chordie server. The original song is hosted at www.guitaretab.com. Chordie works as a search engine and provides on-the-fly formatting. Chordie does not index songs against artists/composers will. To remove this song please click here.

This song is displayed as text-only. Transposing and tuning is only available for chordpro-songs.

Login - add to songbook

Rating click stars to rate

Layout
Accuracy

SHARE PAGE  




You need to log in to post comments