Chordie logo

Pluto   Les Savy Fav



Artist: Les Savy Fav
Song: Pluto
Album: 3/5

I've tabbed the promenant guitar parts here, to tab both guitars would be quite a task.

Intro/ verse
e----------------------------------------10----|
B---7h8p7---7h8p7---7h8p7----------------x-----|
G----------------------------------------7-----|
D----------------------------------------------|
A----------------------------------------------|
E----------------------------------------------|


Second verse part
e---10-10---9--10--10---9---10--10--9---7-------------|
B---x---x---x---x---x---x---x---x---x---x-------------|
G---7---7---6---7---7---6---7---7---6---4-------------|
D-----------------------------------------------------|
A-----------------------------------------------------|
E-----------------------------------------------------|


End of verse. repeat the D and Db and then play the slide
e---10-9-------10/12--------|
B---------------------------|
G---------------------------|
D---------------------------|
A---------------------------|
E---------------------------|


Next Bit. here the bass cuts out
e--------------------------------------------|
B---10---8---14---12-------------------------|
G----x---x----x----x-------------------------|
D----7---5---11----9-------------------------|
A--------------------------------------------|
E--------------------------------------------|

This is the chord that plays the "duh duh duh nuh nuh" rythym... yes.
e------------------|
B---8--------------|
G---x--------------|
D---5--------------|
A------------------|
E------------------|


not too sure on this bit. go on, give it a go.
e---------------------------------------------------------------------------|
B-----------------------------(7)-------------------------------------------|
G---4--5------------(7)------------4--5------------(7)----------------------|
D---4--5--7----(7)-----(7)---------4--5--5----(7)-----(7)-------------------|
A---2--3--7------------------------2--3--5-----------------(7)--------------|
E---------5------------------------------3----------------------------------|


something about wanting to rock it. play the A chord only on the first run through of 
chord progression
e-------------------------------------|
B-------------------------------------|
G---7---------------------------------|
D---7-------7---7---4---5-------------|
A---5-------7---7---4---5-------------|
E-----------5---5---2---3-------------|


play the intro twice


this part is a slightly different version to the end of verse thing
e---10-9-------12-10-9------|
B---------------------------|
G---------------------------|
D---------------------------|
A---------------------------|
E---------------------------|


slide down part with the chuggy chug chug rythym. nice.
e-----------------x--------|
B---8\------------x--------|
G---x-------------x--------|
D---5\------------x--------|
A-----------------x--------|
E-----------------x--------|


"And the father of the bride..."
e---------------------------|

B---8---7---10--------------|
G---x---x---x---------------|
D---5---4---7---------------|
A---------------------------|
E---------------------------|


Back to this part. play ad nauseam. alternitavely, you could follow the bass.
e--------------------------------------------|
B---10---8--14---12--------------------------|
G----x---x---x----x--------------------------|
D----7---5---11---9--------------------------|
A--------------------------------------------|
E--------------------------------------------|


"Let it fly!" coda
e------------x----------|
B------------x----------|
G------------x----------|
D---5---5----x----------|
A---5---5----x----------|
E---3---3----x----------|

tom



Important: The song above is NOT stored on the Chordie server. The original song is hosted at www.guitaretab.com. Chordie works as a search engine and provides on-the-fly formatting. Chordie does not index songs against artists/composers will. To remove this song please click here.

This song is displayed as text-only. Transposing and tuning is only available for chordpro-songs.

Login - add to songbook

Rating click stars to rate

Layout
Accuracy

SHARE PAGE  



You need to log in to post comments