Guitar Tabs, Chords and Lyrics


National Anthem   Less Than Jake


-------------------------------------------------------------------------------











-------------------------------------------------------------------------------



e|--7p4-4-5-4---4----------|



B|------------7---7-5-5-5--|



G|-------------------------|



D|-------------------------|



A|-------------------------|



E|-------------------------|



e|---------------------------|



B|---------------------------|



G|-------6-----9--9-8--6-----|



D|--2----6--4--9--9-8--6--4--|



A|--2----4--4--7--7-6--4--4--|



E|--0-------2-------------2--|



e|------------------------|



B|------------------------|



G|--9----6-----9----6-----|



D|--9----6--4--9----6--4--|



A|--7----4--4--7----4--4--|



E|----------2----------2--|



e|----------------------------------------------|



B|----------------------------------------------|



G|-----4-----4--4-5-6--9-----4--4-5-6--------4--|



D|--7--4--7--4--4-5-6--9--7--4--4-5-6--4--7--4--|



A|--7--2--7--2--2-3-4--7--7--2--2-3-4--4--7--2--|



E|--5-----5---------------5------------2--5-----|



e|------------------------------|



B|------------------------------|



G|--9--9-8--6-----9--9-8--6-----|



D|--9--9-8--6--4--9--9-8--6--4--|



A|--7--7-6--4--4--7--7-6--4--4--|



E|-------------2-------------2--|



e|--------------|    |-------|



B|--------------|    |-------|



G|--9-----6-----|    |--9----|



D|--9--7--6--4--| x4 |--9----|



A|--7--7--4--4--|    |--7----|



E|-----5-----2--|    |-------|



-------------------------



Important: The song above is NOT stored on the Chordie server. The original song is hosted at www.guitaretab.com. Chordie works as a search engine and provides on-the-fly formatting. Chordie does not index songs against artists/composers will. To remove this song please click here.

This song is displayed as text-only. Transposing and tuning is only available for chordpro-songs.

Login - add to songbook

Rating click stars to rate

Layout
Accuracy

SHARE PAGE  




You need to log in to post comments