All I Want From You Is Love

Lets Go Sailing

 BmDAF#BmDAF#
 Don't worry I carun that far            

 BmDAF#BmDAF#
 My legs can carry the rest of me that far        

 BmDAF#Bm
 Don't worry you'll still be able to place me  

 DAF#
To place me, to place me, to place me   

 BmDAF#BmDAF#
 You'll put your finger right on me         

 BmBm/A#B5/AG#5F#5E
 And all I want from you is    love-ove-ove  

 BmBm/A#B5/AG#5F#5E
 And all I want from you is    love-ove-ove  

*Piano solo*

Bm, D, A, F# (x4)

 BmB5/A#B5/AG#5F#5E
 And all I want from you is    love-ove-ove  

 BmBm/A#B5/AG#5F#5E
 And all I want from you is    love-ove-ove  

 BmBm/A#B5/AG#5F#5E
 And all I want from you is    love-ove-ove  

 BmBm/A#B5/AG#5F#5E
 And all I want from you is    love-ove-ove  

|---------------------------------------------------|
|---------------------------------------------------|
|-3h4-4--4h6-4-3----1-2-2---------------------------|
|-----------------4-------4-2----------4--1---------|
|-----------------------------2---2h6--------4--2---|
|---------------------------------------------------|
|---------------------------------------------------|
|---------------------------------------------------|
|-3h4-4--4h6-4-3---2-2h4-2-1------------------------|
|---------------------------------1----4--1---------|
|--------------------------------------------4--2---|
|---------------------------------------------------|


Bm, D, A, F#, Bm, D, A, F#, Bm

____________________________________
Chords:

 BmDAF#B5/A#B5/AG#5F#5E
|------2----0----2-----------------------------0----|
|-3----3----2----2-----------------------------0----|
|-4----2----2----3-----------------------------1----|
|-4----0----2----4------4------4---------------2----|
|-2---------0----4------1------0-----6----4----2----|
|----------------2-------------------4----2----0----|


_____________________________________

Any questions? andrewbiles@hotmail.com


A B5/A Bm Bm/A# D E F# F#5 G#5
variations - click chord images
Transpose chords:
Tuning:
Cool service:
View: Size:
A  A  A
Rating:
Layout:
  • Currently 4/5 Stars.
  • 1
  • 2
  • 3
  • 4
  • 5
 
Accuracy:
  • Currently 2.2/5 Stars.
  • 1
  • 2
  • 3
  • 4
  • 5
 
click stars to rate
Chordie recommends:
Get acoustic guitar lessons and electric guitar lessons at JamPlay.com
Songbook:
Login to add this song to your songbook
Support the artist
Preview/buy this song
MSN Music
Why this non-profit ad?

 
login to add comments/video/corrections