Guitar Tabs, Chords and Lyrics


Al Colegio No Voy Mas  Leusemia

E-|--------------------------------------------||


B-|--------------------------------------------||


G-|--7-7-7-7-7----7-7-7-7-7--------------5/4---||

D-|--7-7-7-7-7----7-7-7-7-7---5-5-5-5-5--5/4---||
A-|--5-5-5-5-5----5-5-5-5-5---5-5-5-5-5--3/2---||
E-|---------------------------3-3-3-3-3--------||
E-|------------------------------------------------------------||
B-|------------------------------------------------------------||
G-|--7-7-7-7-7----7-7-7-7-7--------------5/4-------------------||la ultima
D-|--7-7-7-7-7----7-7-7-7-7---5-5-5-5-5--5/4---(7)(7)(7)(7)----|| kinta en
A-|--5-5-5-5-5----5-5-5-5-5---5-5-5-5-5--3/2---(7)(7)(7)(7)----||( ) c toka
E-|---------------------------3-3-3-3-3--------(5)(5)(5)(5)----||hasta q
  [G5]Me ha llegado al pincho, [A5]la leccion de hoy,
  mat[C5]emática, relig[G5]ion.    [C5/D5]
  [G5]Pasar lista o cantar el [A5]himno al dios
  o[B5] respetar al pr[G5]ofesor. [B5/C#5]
CORO:
       [C5]Al coleg[D5]io no vo[G5]y mas ni [E5]hue[E5/A5/C5]von


C5 D5 E5 SI#5°
Que se queden con su mierda entera


       [C5]Al coleg[D5]io no vo[G5]y mas ni [E5]hue[E5/A5/C5]von          [C5]para qu[D5]e
VERSO 2:
  [G5] No he tenido la primaria [A5]o superior

   s[C5]iempre la misma[G5] opresio[C5]n. [D5]

((AKA TOKAS LO MISMO EL MISMO RITMO SIN KANTAR))


CORO2:
       A[C5]l colegi[D5]o no voy[G5] mas ni h[E5]uev[E5/A5/C5]on
C5 D5 E5 SI#5°
Que se queden con su mierda entera


  A[C5] esa [D5]mierda no voy[G5] mas ni [E5/D5/C5]huevon,
  [C5]que s[D5]e queden co[E5]n toda e[D5]sa huevada educativa
  A[C5]l col[D5]egio no vo[G5]y mas ni [E5/D#5/C5]huevon,
  p[C5]ara [D5]que, [C5]para[D5] que
  si [G5]yo ya se un [E5]monton
  P[C5]ara [D5]que, [C5]para[D5] que ,[C5] par[D5]a que[C5], pa[D5]ra que
  Par[G5]a nada, par[E5]a nada, p[C5]ara nada, p[D5]ara NADA

Important: The song above is NOT stored on the Chordie server. The original song is hosted at www.guitaretab.com. Chordie works as a search engine and provides on-the-fly formatting. Chordie does not index songs against artists'/composers' will. To remove this song please click here.

Text color:
Chord color:
Chord grids: 
Font size:    
Page size: 

A5 B5 C5 D5 E5 G5
variations - click chord images

Login - add to songbook

Transpose chords

Tuning

Rating click stars to rate

Layout
Accuracy

SHARE PAGE  




You need to log in to post comments