Sempire D Amor

Eric Levi

            -----------------------------------------

-----------------------------------------
--------
-----------

 DmAm
       b    r     ~      h p    ~
e[---8-^-10-^-8-(8)/--|-5^7^5--(5)--p---~--|
B[--------------------|------------6^5-(5)-|
G[--------------------|--------------------|
D[--------------------|--------------------|
A[--------------------|--------------------|
E[--------------------|--------------------|


 CG
e[--------------~-----|--------------------|
B[---5---5-6-8-(8)----|-6-5-----~----------|
G[-5---7--------------|-----5--(7)----\----|
D[--------------------|--------------------|
A[--------------------|--------------------|
E[--------------------|--------------------|


 DmAm
      h   ~~                       h h       h p   b  r   ~
e[--15^17-17-----------------h-h--5^7^8-|(8)7^8^7-8^10^8-(8)|
B[------------h--~--~----h--5^7^8-------|-------------------|
G[----------\5^7-7-(7)--5^7-------------|-------------------|
D[--------------------------------------|-------------------|
A[--------------------------------------|-------------------|
E[--------------------------------------|-------------------|


 CG
                                                ~~       ~~
e[-7\8-~-7\8---------------------7-10-8-|-10-12-13-------12-|
B[-----5-----~------------5----8--------|-------------------|
G[-----------7------5--7-----7----------|-------------------|
D[--------------------------------------|-------------------|
A[--------------------------------------|-------------------|
E[--------------------------------------|-------------------|


Vocal Part (transcribed for Guitar)
------------------------------------


 EmGEmGAmCAmC
e[------------------|------------------|-------5-------~--|---------5-6-6-5--|
B[-------5-------~--|--------5-----~---|-6-6-6---5-5--(5)-|-6-6-6-8----------|
G[\5-5-5---4-4--(4)-|-/5-5-5---4-5-7---|------------------|------------------|
D[------------------|------------------|------------------|------------------|
A[------------------|------------------|------------------|------------------|
E[------------------|------------------|------------------|------------------|


 GAm
e[---~---~---~~--~~-|

B[-6-8--(8) \10-(10)|
G[------------------|
D[------------------|
A[------------------|
E[------------------|				






Am C Dm Em G
variations - click chord images
Transpose chords:
Tuning:
Cool service:
View: Size:
A  A  A
Rating:
Layout:
  • Currently 3.2/5 Stars.
  • 1
  • 2
  • 3
  • 4
  • 5
 
Accuracy:
  • Currently 2.6/5 Stars.
  • 1
  • 2
  • 3
  • 4
  • 5
 
click stars to rate
Chordie recommends:
Learn how to play guitar at JamPlay.com
Songbook:
Login to add this song to your songbook
Support the artist
Preview/buy this song
MSN Music
Why this non-profit ad?

 
login to add comments/video/corrections