Better To Be

Liam Finn

E|---------------------------------------------------------------------------|

B|---------------------------------------------------------------------------|
G|---------------------------------------------------------------------------|
D|---------------------------------------------------------------------------|
A|----------5--5------5--------5--5----5--------5--5--5/7--------------------|
E|--0----0--------------0--0-------------3----3-------------0--2--2--2-------|

 EDEDG
          better to be       bigger than the other
 DEB/F
 heart on your sleeve       and hat on your head
 EDEDG
           i want to see       you playong with your shadow
 DEB/F
 Hypnotise me      with every step

Play some notes out of Em Pentatonic or similar (then loop it in reverse)
E|12--12-12-12---------------------------------------------------------------|
B|------------15-15-15-15-12-12-12-12----------------------------------------|
G|-----------------------------------14--14--14--14--12--12-12--12-----------|
D|---------------------------------------------------------------------------|
A|---------------------------------------------------------------------------|
E|---------------------------------------------------------------------------|


sounds like theres an arpeggio in reverse too!
E|----------15--19--15-------------|
B|------17--------------17---------|
G|--16----------------------16-----|
D|---------------------------------|
A|---------------------------------|
E|---------------------------------|


Ahhhh Ahhh Ahh Ahhh Ahh AHhhh

 EDEDG
        falling asleep       while sitting at the doctor  
 DEB/F
 i dont beleive    a thing that he says
 EDEDG
     ordinary    people, like i told you
 DEB/F
 are following me everywhere
 EDEDGD
     bottle it up    bottle it up
 EDEDGD
     bottle iup bottle it up

 C
 girl you seemed so nice
 GEm
but ill be gone by morning time
 AmGB/F
 baby baby ill be gone  
 C
 fooled me once or twice
 GEm
but the boy inside cant unwind
 AmGD
 maybe, maybe ill go home   

Repeat chords

Play some notes out of Em Pentatonic or similar (then loop it in reverse)
E|12--12-12-12---------------------------------------------------------------|
B|------------15-15-15-15-12-12-12-12----------------------------------------|
G|-----------------------------------14--14--14--14--12--12-12--12-----------|
D|---------------------------------------------------------------------------|
A|---------------------------------------------------------------------------|
E|---------------------------------------------------------------------------|


sounds like theres an arpeggio in reverse too!
E|----------15--19--15-------------|
B|------17--------------17---------|
G|--16----------------------16-----|
D|---------------------------------|
A|---------------------------------|
E|---------------------------------|


Ahhhh Ahhh Ahh Ahhh Ahh AHhhh

 EDEDGDEmB/F
          better to be    looking for an answer out in the sea or under your bed
 EDEDG
      ill probobly      just leave it till the morning
 DEB/F
 my energy    is already spent

 EDEDGD
     bottle iup bottle it up
 EDEDGD
     bottle iup bottle it up

 C
 girl you seemed so nice
 GEm
but ill be gone by morning time
 AmGB/F
 baby, baby ill be gone 
 C
 fooled me once or twice
 GEm
but the boy inside cant unwind
 AmGB/F
 maybe, maybe ill go home  
 C
 spoil and appetite
 GEm
with bigger eyes than belly size
 AmGB/F
 baby, baby ill be gone
 CGEm
 fooled me once or twice but the boy inside cant unwind
 AmGD
 maybe, maybe ill go home  

- dont stain yourself!


Am B/F C D E Em G
variations - click chord images
Transpose chords:
Tuning:
Cool service:
View: Size:
A  A  A
Rating:
Layout:
  • Currently 3/5 Stars.
  • 1
  • 2
  • 3
  • 4
  • 5
 
Accuracy:
  • Currently 0/5 Stars.
  • 1
  • 2
  • 3
  • 4
  • 5
 
click stars to rate
Chordie recommends:
Learn how to play guitar at JamPlay.com
Songbook:
Login to add this song to your songbook
Support the artist
Preview/buy this song
MSN Music
Why this non-profit ad?

 
login to add comments/video/corrections