Chordie logo

Breck Rd Boys In The Band  Libertines

--------





e|-------------|  Put your hand in a D# (6, 6, 8, 8, 8, 6) to play the intro


A|-------8-----|


D|---------8---|


G|-----8-------|  x 10 (Bass comes in on 9 with the bass riff)


B|---6---------|


E|-------------|



e|---------------------------------------------|


A|---8--8-------------------8--8/11--8--8/11---|


D|---8--8-------------------8--8/11--8--8/11---|


G|---8--8--9-11-12-11-9-8---8--8/11--8--8/11---|  is played almost continuously 



B|---6--6--9-11-12-11-9-8---6--6/9---6--6/9----|


E|---------------------------------------------|



--------













[and]sings) andguitar 2 carries on. Guitar 2 comes in again after the first line and carries
with the
chords as shown below:

--------


VERSE 1:
You're walking like you've never seen the light  [F]


You're walking like it every night

[A#m]But I've never seen you dance and I've n[C]ever heard you sing

Am                   Dm C#m   C       C (strum lots)   F           RIFF e|---2--------7-------|
So how can it mean a single thing?                                      B|-----3--------8-----|
                                                                        G|-------4/-------9---|
It's all so rudimentary   (RIFF)                                        D|--------------------|
                                                                        A|--------------------|
--------                                                                E|--------------------|


BRIDGE: (9-11-12-11-9 bit on guitar 1 and F strums on guitar 2) for 2 bars

--------


VERSE 2:

You're talking like you're handy in the fight

You talk about it every night

But I've never seen those flowers in the barrel of your gun

All I've ever seen you do is run...

Not a rude boy you're the gentry (RIFF)

--------


CHORUS:

So tell me b[F]aby, ho[Am]w does it feel?

[Dm]I know you like the roll of the l[F]imousine wheel

[F]And they all get them o[Am]ut for (they all get them o[A#]ut)

For the boys in the band (o[C]nly for the boys in the band)

[F]They scream and they sh[Am]out for (twist and they scream and sho[A#]ut)

For the boys in the band, [C]the boys in the band...

-------



BRIDGE: (9-11-12-11-9 bit on guitar 1 and F strums on guitar 2) for 2 bars

-------



You're walking like you've never seen the light  [F]


You're walking like it every night

[A#m]But then I stop to thinks and I a[C]sk myself why?

[Am]  C (strum lots)   F           [Dm]         [C#m]        [C]
It's one of those things that darling you must try

It's all so rudimentary (RIFF)

--------


CHORUS:

So tell me b[F]aby, ho[Am]w does it feel?

[Dm]I know you like the roll of the l[F]imousine wheel

[F]And they all get them o[Am]ut for (they all get them o[A#]ut)

For the boys in the band (o[C]nly for the boys in the band)

[F]They scream and they sh[Am]out for (twist and they scream and sho[A#]ut)

For the boys in the band, [C]the boys in the band...

--------


SOLO:

Guitar 1 goes back into the 9-11-12-11-9 bit and guitar 2 plays:

e|---1--1-x-/-11--11-x-x-x-x-x--1--1-x-/-12--12-x-x-x-x-x--1--1-x-/-11--11-x-x-x-x-x--1--|
B|---1--1-x-/-13--13-x-x-x-x-x--1--1-x-/-14--14-x-x-x-x-x--1--1-x-/-11--11-x-x-x-x-x--1--|
G|---2--2-x-/-13--13-x-x-x-x-x--1--1-x-/-14--14-x-x-x-x-x--1--1-x-/-11--11-x-x-x-x-x--1--|
D|---3--3-x-/-13--13-x-x-x-x-x--1--1-x-/-14--14-x-x-x-x-x--1--1-x-/-11--11-x-x-x-x-x--1--|
A|---3--3-x-/-11--11-x-x-x-x-x--1--1-x-/-12--12-x-x-x-x-x--1--1-x-/-11--11-x-x-x-x-x--1--|
E|---1--1-x-/-11--11-x-x-x-x-x--1--1-x-/-12--12-x-x-x-x-x--1--1-x-/-11--11-x-x-x-x-x--1--|


Guitar 1 stops and guitar 2 plays:

e|---------------------------------------------------------------------------------------|
B|---13----13----------------------------------------------------------------------------|
G|---15b17-15b17--15-15-13--------13----13----13----15p14p13-15p14p13-15p14p13-15p14p13--|
D|--------------------------15~~~~---15----15----15--------------------------------------|
A|---------------------------------------------------------------------------------------|
E|---------------------------------------------------------------------------------------|
e|--------------------------------------------------------------|
B|---13----13--13----13--13----13-13-13-13-13-13-13-------------|
G|---15b17-----15b17-----15b17----15-15-15-15-15-15--13~~~~/0---|
D|--------------------------------------------------------------|
A|--------------------------------------------------------------|
E|--------------------------------------------------------------|
--------


CHORUS:

But tell me [F]baby, Oh [Am]how does it feel?

[Dm]I know you like the roll of the l[F]imousine wheel

[F]And they all get them o[Am]ut for (they all get them o[A#]ut)

For the boys in the band (o[C]nly for the boys in the band)

[F]They scream and they sh[Am]out for (twist and they scream and sho[A#]ut)

For the boys in the band, [C]the boys in the band...

--------


CHORUS 2: (Same chords as above, just with these lyrics)

Yes they all want them out for

All the boys in the band

Oh they scream and they shout for

The boys in the band.... In the band....

Guitar 1 ends on D#
Guitar 2 ends on F

Important: The song above is NOT stored on the Chordie server. The original song is hosted at www.guitaretab.com. Chordie works as a search engine and provides on-the-fly formatting. Chordie does not index songs against artists/composers will. To remove this song please click here.

A# A#m Am C C#m Dm F
variations - click chord images

Login - add to songbook

Transpose chords

Tuning

Rating click stars to rate

Layout
Accuracy

SHARE PAGE  

You need to log in to post comments