""; ?> Spin Acoustic by Lifehouse - guitar chords, guitar tabs and lyrics - chordie

Spin Acoustic

Lifehouse

eb|-------------------------------------------------------|

Bb|-------------------------------------------------------|
Gb|-------------------------------------------------------|
Db|-------------------------------------------------------|
Ab|---9--9--9--9--9--9--9--9--9--9--10-10-10-9--9--9--9---|
Eb|-2/10-10-10-10-10-10-10-10-10-10-10-10-10-10-10-10-10--|
eb|------------------------------------|
Bb|------------------------------------|
Gb|------------------------------------|
Db|-----------------------5-5-5-4-4-4--|
Ab|-5-5-5-5-5-5-5-5-7-7-7-7-7-7-7-7-7--|
Eb|-7-7-7-7-7-7-7-7-7-7-7-7-7-7-7-7-7--|
eb|----------------------------------|
Bb|----------------------------------|
Gb|----------------------------------|
Db|-2-2-2-2-2-2-2-2-2-2-2-2-2-2-2-2--|
Ab|-2-2-2-2-2-2-2-2-2-2-2-2-2-2-2-2--|
Eb|-0-0-0-0-0-0-0-0-0-0-0-0-0-0-0-0--|

 EmG/F#G
Where I'll be and be alone and convinced that I know

Chorus 1:
 DBm
 When the world keeps spinning round
 Em
My world's upside down
 G/F#G
And I wouldn't change a thing
 DBm
 I've got nothing else to lose
 Em
I lost it all when I found you
 G/F#G
And I wouldn't change a thing
 EmG/F#G
No you and I wouldn't change a thing

Verse 2: (Play Intro over the verse again)

Everything I know has let me down
So I will just let go
Let you turn me inside out
Because I know I'm not sure
About anything

 EmG/F#G
But you wouldn't have it any other way

Chorus 2
 DBm
 When the world keeps spinning round
 Em
My world's upside down
 G/F#G
And I wouldn't change a thing
 DBm
 I've got nothing else to lose
 Em
I lost it all when I found you
 G/F#G
And I wouldn't change a thing
 EmG/F#G
No you and I wouldn't change a thing

Bridge
 Dsus2A#M7b5/ED9/EA#M7b5/E
 Spinning, Turning, Watching, Burning
 Dsus2A#M7b5/ED9/EA#m7b5/E
 Oh my life has found it's meaning
 Dsus2A#M7b5/ED9/EA#M7b5/E
 Walking, Crawling, Climbing, Falling
 Dsus2A#m7b5/ED9/EA#M7b5/E
 Oh my life has found it's meaning

 EmG/F#G
 You and I wouldn't change a thing
 EmG/F#G
No you and I wouldn't change a thing

Instrumental part

D,Bm,Em,G/F#,G

Chorus 3
 DBm
 When the world keeps spinning round
 Em
My world's upside down
 G/F#G
And I wouldn't change a thing
 DBm
 I've got nothing else to lose
 Em
I lost it all when I found you
 G/F#G
And I wouldn't change a thing
 EmG/F#G
No you and I wouldn't change a thing
 EmG/F#G
No you and I wouldn't change a thing

Chords used
Em - 022000
G/F# - 200033
G - 320033
D - xx0232
Bm - x24432
Dsus2 - 000230
A#M7b5/E - 000350
D9/E - 000570


Bm D Dsus2 Em G G/F#
variations - click chord images
Transpose chords:
Tuning:
Cool service:
View: Size:
A  A  A
Rating:
Layout:
  • Currently 0/5 Stars.
  • 1
  • 2
  • 3
  • 4
  • 5
 
Accuracy:
  • Currently 0/5 Stars.
  • 1
  • 2
  • 3
  • 4
  • 5
 
click stars to rate
Chordie recommends:
Check out JamPlay.com for online video guitar lessons
Songbook:
Login to add this song to your songbook
Support the artist
Preview/buy this song
MSN Music
Why this non-profit ad?

 
login to add comments/video/corrections