Guitar Tabs, Chords and Lyrics


Il Gringo 94  Ligabue

[Facile, tutta uguale: G F C] 
[PS: Non e' vero! Guardate *Il gringo '91* per avere quelli
giusti.]

[Intro] |G |F C|

[TAB di Alessandro Marini] 
[Intro]SOL          (tap)      FA                DO
e:--------------.--|-x-x-x-x-|-----------------|---------|
B:---------6---5---|---------|-----------------|-------8-|
G:-5---7-----7-----|---------|--------------.--|---------| X 2
D:-----------------|---------|-5---7---7-7-5---|---------|
A:-----------------|---------|-----------------|---------|
E:-----------------|---------|-----------------|---------|

1 . 2 . 3 . 4 . 1 2 3 4 1 . 2 . 3 . 4 . 1 2 3 4

[Riff]SOL                            FA                DO
e:-----------------|---------------|-----------------|-----------------|
B:-----------------|---------------|-----------------|-----------------|
G:-5^7-7-5^7-7-5^7-|-5-4-4-4^4-----|-3^5-5-3^5-5-3^5-|-----5-----5-----|X
D:-----------------|---------------|-----------------|-5-7---5-7---5-7-|2
A:-----------------|---------------|-----------------|-----------------|
E:-----------------|---------------|-----------------|-----------------|

1 . 2 . 3 . 4 . 1 . 2 . 3 4 1 . 2 . 3 . 4 . 1 . 2 . 3 . 4 .

[G]Il Gringo un giorno pas[F]so' col cap[C]pello
sugli o[G]cchi ed un sigaro s[F]pento appeso. [C]
Io lo guardavo e poi senza la Colt
mi sentivo piu' nudo che indifeso.
Dura la vita in pianura col Gringo
che conosce una legge sola: la sua

Il Gringo era riflessi,
speroni e dovere e lampi e grandi palle
E nemici tutti bavosi
e ostinati a restarsene
dentro la propria pelle

[F]Il nostro cuore non e' da seppellire
[G]ne' a Wounded Knee,
ne' in nessun altro dove
[F]Il nostro cuore non e' da regola[G]re

Attenti al Gringo di pattugliamento:
ci si mette lui di corvèe
Il Gringo che va fino in fondo:
sa che cos'e' meglio per te
Il Gringo raschia tutto il fango,
raschia tutti fin che ce n'e'
Il Gringo quasi quasi spengo,
tanto lo sappiamo gia' com'e'.

Il Gringo si accende il fuoco un po'
per i coyotes ma piu' che altro per le artriti
ha avuto un giorno pesante
fra nuovi bersagli e taglie ed ex banditi
Il nostro cuore non e' da seppellire
ne' a Wounded Knee,
ne' in nessun altro dove
Il nostro cuore non e' da regolare.

Attenti al Gringo di pattugliamento:
ci si mette lui di corvee
il Gringo che va fino in fondo:
sa che cos'e' meglio per te
Il Gringo raschia tutto il fango,
raschia tutto finche' ce n'e'
Il Gringo quasi quasi spengo,
tanto lo sappiamo gia' com'e'.
Attenti al Gringo di pattugliamento:
ci si mette lui di corvee
il Gringo che va fino in fondo:
sa che cos'e' meglio per te

Dura la vita in pianura col Gringo
che conosce una legge sola: la sua
Dura la vita in riserva col Gringo
che ripete che la tua legge e' merda.
Cuore regolare: non e' da seppellire

Important: The song above is NOT stored on the Chordie server. The original song is hosted at www.guitaretab.com. Chordie works as a search engine and provides on-the-fly formatting. Chordie does not index songs against artists'/composers' will. To remove this song please click here.

Text color:
Chord color:
Chord grids: 
Font size:    
Page size: 

C F G
variations - click chord images

Login - add to songbook

Transpose chords

Tuning

Rating click stars to rate

Layout
Accuracy

SHARE PAGE  




You need to log in to post comments