Guitar Tabs, Chords and Lyrics


Vivo O Morto O X   Ligabue



~~~~~~~~~~~~~~
VIVO MORTO O X
~~~~~~~~~~~~~~

[Intro]: A   G D

TAB opera di Red

e|---------------|---------------|
B|---------------|---------------|
G|-----------7-6-|---------------|
D|---7---7-------|---7---7---0-6-|
A|-0---0---0-----|-0---0---0-----|
E|---------------|---------------|

e|---------------|-----------------|
B|---------------|-----------------|
G|-----------7-6-|-------------6tr-|
D|---7---7-------|---0-4p0-7p0-----|
A|-0---0---0-----|-0---------------|
E|---------------|-----------------|
TAB alternativa, grazie a Fulvio:

e|---------------|---------------|
B|---------------|---------------|
G|-----------7-6-|---------------|
D|---7---7-------|---7---7---6-5-|
A|-0---0---0-----|-0---0---0-----|
E|---------------|---------------|

e|---------------|-----------------|
B|---------------|-----------------|
G|-----------7-6-|-----------------|
D|---7---7-------|---0-4-0-7-0-11--|
A|-0---0---0-----|-0---------------|
E|---------------|-----------------|
e|---------------|---------------|
B|---------------|---------------|
G|-----------7-6-|---------------|
D|---7---7-------|---7---7---6-5-|
A|-0---0---0-----|-0---0---0-----|
E|---------------|---------------|

e|---------------|-----------------|
B|---------------|-----------------|
G|-----------7-6-|-------------6---|
D|---7---7-------|---0-4-0-7-0-----|
A|-0---0---0-----|-0---------------|
E|---------------|-----------------|

e|------------2-|------------2-|
B|-0-2--x-x-x-3-|-0-2--------3-|
G|-0-2--x-x-x-2-|-0-2--------2-|
D|-0-2--x-x-x-0-|-0-2--------0-|
A|---0--x-x-x---|---0--0-3-0---|
E|--------------|--------------|

e|------------2-|-3------2-----|
B|-0-2--x-x-x-3-|-0------3-----|
G|-0-2--x-x-x-2-|-0------2-----|
D|-0-2--x-x-x-0-|-0------0-----|
A|---0--x-x-x---|-2------------|
E|--------------|-3------------|

   ---------------------------

e|-------2-----|------0------0-|
B|-----3---3---|---------------|
G|---2-------2-|---2------4----|
D|-0-----------|-3------5------|
A|-------------|---------------|
E|-------------|---------------|
 Ah, ah, alla faccia di chi..

e|-------------|---------------|
B|-------------|---------------|
G|---2-0-------|---------------|
D|-2-----2-0---|-2-------------|
A|-0-----------|-0--3-2-0------|
E|-------------|----------3----|
   ics           ics
A                  A
Nato da un sospiro o da un temporale
                            G
l'ostetrica ti batte non ti chiede *come va?*
     A
Beh, benvenuto qui, fra luce e confusione
                                G
e nessuno che t'ha chiesto se volevi,
     D             A
se volevi uscir di la' la'

T'han detto cos'e' bene
e t'han spiegato il male.
*Si sappia regolare:
prima o poi c'e' l'aldila'*.
Guardare e non toccare
guardere ed ingoiare
e sei un po' nervoso
ed un motivo ci sara'.

[Rit]

A
Vivo morto o ics
Bm
vivo morto o ics
D
vivo morto, vivo morto
G
vivo morto o ics.
A
Fa una croce qui,
Bm
firmati cosi'
D
vivo morto, vivo morto
G
vivo morto o ics

[accordi C.S.]
E te lo porti dentro
quel vecchio professore
che ti ha rubato tempo
con la sua mediocrita'.
E puntano al tuo tempo
e a alcuni sissignore
e perfino un giuramento
e un anno di tua proprieta'

[Rit]

A
Vivo morto o ics
Bm
vivo morto o ics
D
vivo morto, vivo morto
G
vivo morto o ics.
A
Siamo sempre qui,
Bm
come cosa chi?
D
vivo morto, vivo morto
G
vivo morto o ics

D       F
Aaa-lla faccia
   G              A    A
di chi t'ha visto ics  ics
D       F
Aaa-lla faccia
   G            A  A
di chi ti pensa    ics
D       F
Aaa-lla faccia
   G
di chi ti vuole...

T'han detto ce c'e' posto
per chi sa stare a posto
il posto tele accesa
e la casetta in Canada.
Il sabato la spesa
e il giorno dopo in chiesa
e sei un po' nervoso
ed un motivo ci sara'
A
Vivo morto o ics
Bm
vivo morto o ics
D
vivo morto, vivo morto
G
vivo morto o ics.
A
Fa una croce qui,
Bm
firmati cosi'
D
vivo morto, vivo morto
G
vivo morto o ics

D       F
Aaa-lla faccia
   G              A    A
di chi t'ha visto ics  ics
D       F
Aaa-lla faccia
   G            A  A
di chi ti vuole    ics
D       F
Aaa-lla faccia
   G
di chi ti pensa...

A                             |
La la la la la la la la le ro |
Bm4                           |
La la la la la la la la le ro |
D                             |-->[x4]
La la la la la la la la le ro |
G                             |
Vivo morto o ics              |

[finale]
A
ics
+-+-+-+-+-+-+-+-+-+-+-+-+-+-+-+-+-+-+-+-+-+-+-+-+-+-+-+-+-+-+-+-+-



Important: The song above is NOT stored on the Chordie server. The original song is hosted at www.guitaretab.com. Chordie works as a search engine and provides on-the-fly formatting. Chordie does not index songs against artists'/composers' will. To remove this song please click here.

This song is displayed as text-only. Transposing and tuning is only available for chordpro-songs.

Login - add to songbook

Rating click stars to rate

Layout
Accuracy

SHARE PAGE  




You need to log in to post comments