Guitar Tabs, Chords and Lyrics


Non E Tempo Per Noi  Ligabue

e-2/7-----7-7-7-7-|-----2-----2-----|-0---------------|-0-----------0-0-|


B-3/8---8-8-8-8-8-|-----3-----3-----|-1-------1-1-----|-0-----------0-0-|


G-2/7-----7-7-7-7-/-2---2-----2-----|-0-------0-0-----|-0---------0-----|

D-0-------------0-|-----------------|-2-------2-2-----|-2---------------|
A-----------------|-----------------|-3-------3-3-3---|-2---------------|
E-----------------|-----------------|-----------------|-----------------|
e-2/7-----7-7-7---|-----2-2---2-----|-0---------------|-3-----------3-3-|
B-3/8-----8-8-8-8-|-----3-3---3-----|-1-------1-1-----|-3-----------3-3-|
G-2/7-----7-7-7-7-|-----2-2---2-----|-0-------0-0-----|-0-----------0-0-|
D-0---------------|-----0-0---0-----|-2-------2-2-----|-0---------0-----|
A-----------------|-----------------|-3-------3-3-----|-2---------------|
E-----------------|-----------------|-----------------|-3---------------|
[C]Ci han concesso solo una v[D]ita
Soddisfatti o no[G] qua non rimb[D/F#]orsano mai[C]
E calendari a chiederci s[D]e
stiamo prendendo abbastan[G]za[D] abbas[Em]tanza
[C]Se per ogni sbaglio avessi [D4]mille lir[D]e
[C]Che vecchiaia che passere[D]i
Strade troppo strette e diritte
Per chi vuol cambiar rotta oppure sdraiarsi un po'
Che andare va bene pero'
A volte serve un motivo, un motivo
Certi giorni ci chiediamo e' tutto qui?
E la risposta e' sempre s[D4]i'
[D]  Non e' [G]tempo per[D] noi che non [C]ci svegliamo mai[Em]
Abbiam [G]sogni per[D]o' troppo [Em]grandi e belli sai
Belli o [C]brutti abbiam [D]facce che pe[Em]ro' non cambian [A]mai
Non e' [C]tempo per [D]noi e forse [F]non lo sara' [G]mai

(Strumentale come l'intro)
[G]  [D]  [C]  [Em]   [G]  [D]  [C]  [G]                      


Se un bel giorno passi di qua
lasciati amare e poi scordati svelta di me
che quel giorno e' gia' buono per amare qualchedun'altro
qualche altro
dicono che noi ci stiamo buttando via
ma siam bravi a raccoglierci.

Non e' tempo per noi che non ci adeguiamo mai
Fuorimoda, fuoriposto, insomma sempre fuori dai
Abbiam donne pazienti rassegnate ai nostri guai
Non e' tempo per noi e forse non lo sara' mai

Non e' tempo per noi che non vestiamo come voi
Non ridiamo, non piangiamo, non amiamo come voi
Forse ingenui o testardi
Poco furbi casomai
Non e' tempo per noi e forse non lo sara' mai

Important: The song above is NOT stored on the Chordie server. The original song is hosted at www.guitaretab.com. Chordie works as a search engine and provides on-the-fly formatting. Chordie does not index songs against artists'/composers' will. To remove this song please click here.

Text color:
Chord color:
Chord grids: 
Font size:    
Page size: 

A C D D/F# D4 Em F G
variations - click chord images

Login - add to songbook

Transpose chords

Tuning

Rating click stars to rate

Layout
Accuracy

SHARE PAGE  




You need to log in to post comments