Urlando Contro Il Cielo

Ligabue

 Intro nel LIVE di *A cbe ora e' la fine del mondo?*
(pianoforte):

(Molto lento)
 F#m)(C#mEBDE
e:------------------------------------------|
B:------------------------------------------|
G:------------------------------------------|
D:-9--7-7---11--9-9-11--7---9-9-11-12-11-9--|
A:------------------------------------------|
E:------------------------------------------|

 F#m)(C#mEBDBm
e:--------------------------------------------------------|
B:--------------------------------------------------------|
G:--------------------------------------------------------|
D:-9--7-7---11--9-9-11--7---4-4-4-4--4--4--4--4--9--9--4--|
A:--------------------------------------------------------|
E:--------------------------------------------------------|


 Intro nel Live di *Su e giu' da un palco*

Fa#- Do#- Mi Si Re Mi
-2------/4----0--2-2-2---2-2------------0-----|
---2----/5----0--4-4-----3---3------------0---|
-----2--/6----1--4-4-----2-----2------------1-|
---------6----2--4-4-----0--------2-2-2-------|
---------4----2--2-2--------------2-2-2-------|
---------4----0--2-2--------------------------|


Fa#- Do#- Mi Si Re (non so quanti)
-2------/4----0--2-2-2---2-2------2-2-2-2-2-2-|
---2----/5----0--4-4-----3---3----3-3-3-3-3-3-|
-----2--/6----1--4-4-----2-----2--2-2-2-2-2-2-|
---------6----2--4-4-----0--------------------|
---------4----2--2-2--------------------------|
---------4----0--2-2--------------------------|
------------------------------------------|
-----5-----5-----5-----5------------------|
-6-7---6-7---6-7---6-7----/7-6---/7-6---4-|
-------------------------------7------7---|
------------------------------------------|
------------------------------------------|
-5-7-7-5-5--12-12--5-5-7-7--10-9----10-9----|
-5-5-5-5-5--10-10--5-5-5-5--9----10-9----10-|
-6-6-6-6-6--11-11--6-6-6-6--9-------9-------|
-7-7-7-7-7--12-12--7-7-7-7--9-------9-------|
--------------------------------------------|
--------------------------------------------|
-5-7-7-5-5--12-12--5-5-7-7--10-9----10-9----5-|
-5-5-5-5-5--10-10--5-5-5-5--9----10-9----10-5-|
-6-6-6-6-6--11-11--6-6-6-6--9-------9-------6-|
-7-7-7-7-7--12-12--7-7-7-7--9-------9-------7-|
--------------------------------------------7-|
--------------------------------------------5-|


 Intro

 Prima versione di Andrea Zanovello

-0-0-0-0-0-0-0-0-0-0-0-0-0-0-0-0---2-2-2-2-2-2-2-2--|
-2-2-2-3-3-3-2-2-2-2-2-3-3-3-2-2---3-3-3-2-2-2-0-0--|
-2-2-2-2-2-2-2-2-2-2-2-2-2-2-2-2---2-2-2-2-2-2-2-2--|
-2-2-2-2-2-2-2-2-2-2-2-2-2-2-2-2---0-0-0-0-0-0-0-0--|
----------------------------------------------------|
----------------------------------------------------|


 Altra versione piu' *elettrica*

 D5E5
e:---------------------------------|
B:---------------------------------|
G:-7-7-7-7-7-7-7-7/9-9-9-9-9-9-9-9-|
D:-7-7-7-7-7-7-7-7/9-9-9-9-9-9-9-9-|
A:-5-5-5-5-5-5-5-5/7-7-7-7-7-7-7-7-|
E:---------------------------------|


 Riff principale

 A5D5E5
-------------------------------------------|
-------------------------------------------|
-----9-9-----9-9-----9-9----7-6---7-6------|
-7-7-----7-7-----7-7------7-----7-----7----|
-------------------------------------------|
-------------------------------------------|
    Sono due terzine -----> |-3-| |-3------|


Riff sotto le strofe (si sente bene nella versione LIVE):

e:------------|
B:------------|
G:-------7-6--| (lasciar suonare)
D:-7-7-7------|
A:------------|
E:------------|


[La ritmica sotto le strofe esegue dei power chord
molto ritmati nella sequenza A5 D5 E5]

 A
 Come vedi sono qua:
 DE
monta su, non ci avranno
 AD
 finche' questo cuore non crepera'
 EADE
di ruggine, di botte o di eta'.    

Intermezzo:

e:-10-9\5-----------------|
B:------------------------|
G:------------------------|
D:------------------------|
A:--------0h2-/4-5-/9-7---|
E:------------------------|


 A
 C'e' una notte tiepida
 D
e un vecchio blues
 E
da fare insieme,
 A
in qualche posto accostero'
 DE
e quella la' sara' la nostra casa, ma
 F#mC#mEBD
 credo che meriti di piu'
 E
 ma intanto son qua io
 F#mC#mEBD
 e ti offro di ballarci su:
 Bm
e' una canzone di cent'anni almeno.

Intermezzo:

e:---------------------------|
B:-----5-----5-----5-----5~--|
G:-6/7---6/7---6/7---6/7-----|
D:---------------------------|
A:---------------------------|
E:---------------------------|


 DE
 Urlando contro il cielo.
 ADEADE
 Ooh, ooh, ooh, ooh, ooh, ooh, ooh, ooh.

 A
 Non saremo delle star
 DE
ma siam noi, con questi giorni
 A
 fatti di ore andate per
 DE
un weekend e un futuro che non c'e'.
 F#mC#mEBD
 Non si puo' sempre perdere
 E
  per cui giochiamoci
 F#mC#mEBD
 certe luci non puoi spegnerle.
 Bm
Se e' un purgatorio e' nostro perlomeno.

Intermezzo:

e:---------------------------|----------|
B:-----5-----5-----5-----5~--|-10-9-----|
G:-6/7---6/7---6/7---6/7-----|-----9----|
D:---------------------------|----------|
A:---------------------------|----------|
E:---------------------------|----------|

^^^^^^^^ da ripetere molte
volte rapidamente

 DE
 Urlando contro il cielo.
 ADEADE
 Ooh, ooh, ooh, ooh, ooh, ooh, ooh, ooh.

 intermezzo pianoforte
  (troppo veloce per trascriverlo!)
Gli accordi sono i soliti: A D E
Verso la fine (sul D) entra la chitarra con dei power chords
ritmati a tempo con la canzone e suonati con pennate solo
discendenti:

 D5E5A5D5E5
 CD
Fantasmi sulla A quattordici.
 CD
Dai finestrini passa odor di mare, diesel,
 E4E
merda, morte e vi-ta.
^
L--- Tutti gli accordi di questa strofa si possono
suonare come power chords ( C5 D5 C5 D5 E5 )
senza interrompere la ritmica rispetto
all'intermezzo precedente

 F#mC#mEBD
Il patto e'  stringerci di piu'
 E
  prima di perderci.
 F#mC#mEBD
 Forse ci  sentono lassu'.
 Bm
E' un po' come sputare via il veleno.

[Anche qui potete usare i power chord:
F5 C#5 E5 B5 D5 E5]

 intermezzo
  (vedi sopra)

 DE
 Urlando contro il cielo.
 ADEADE
 Ooh, ooh, ooh, ooh, ooh, ooh, ooh, ooh. (ripete ad libitum)

Finisce con:
 ADEADE
 Ooh, ooh, ooh,         ooh, ooh, ooh, ooh,         ooh.
(contro il cielo) (contro il cielo)

A D E A D E A <-- Lasciar suonare
Ooh, ooh, ooh, ooh, ooh, ooh, ooh, ooh. <--- Rallentando


A A5 B Bm C C#m D D5 E E4 E5 F#m
variations - click chord images
Transpose chords:
Tuning:
Cool service:
View: Size:
A  A  A
Rating:
Layout:
  • Currently 2.5/5 Stars.
  • 1
  • 2
  • 3
  • 4
  • 5
 
Accuracy:
  • Currently 2.5/5 Stars.
  • 1
  • 2
  • 3
  • 4
  • 5
 
click stars to rate
Chordie recommends:
Get acoustic guitar lessons and electric guitar lessons at JamPlay.com
Songbook:
Login to add this song to your songbook
Support the artist
Preview/buy this song
MSN Music
Why this non-profit ad?

 
login to add comments/video/corrections