Guitar Tabs, Chords and Lyrics


Viva  Ligabue

e:------8---------8------------8-|------8---------8------------8-|


B:--------------8------------8---|--------------8------------8---|


G:---------9-10---------9-10-----|---------9-10---------9-10-----|

D:--10---------------------------|--10---------------------------|
A:-------------------------------|-------------------------------|
E:-------------------------------|-------------------------------|
------------------------------------------------------------------
e:----------------------------|----------------------------|
B:-----1--------1-----------1-|-----1--------1-----------1-|
G:------------0-----------0---|------------0-----------0---|
D:--------2-3---------2-3-----|--------2-3---------2-3-----|
A:--3-------------------------|--3-------------------------|
E:----------------------------|----------------------------|
Questa qu[Am]a e' per t[C]e
e anche [F]se non e' un granch[Am]é
ti volevo[C] solo dire[F]
che era qui[D7] in fondo a me[G].
E' per te[Am] che lo sai[C]
di chi [F]sto parlando dai[Am]
e ti pia[C]cerà un minut[F]o
e poi te[D7] ne scorderai[G].
perché sei v[F]iva, v[C]iva
co[G]si' come sei[Am]
quanta [F]vita mi hai pas[C]sato
e non la [G]chiedi indietro [A4]mai
[A7]e sei [F]viva, [C]viva
per [G]quella che [Am]sei
sempre [F]pronta, sempre ingo[C]rda
sempre so[G]lo come vuoi.
Questa qu[Am]a e' per t[C]e
che non[F] ti puoi spegnere[Am]
non hai mai[C] avuto tem[F]po
devi [D7]troppo vivere[G]
e' per te[Am]   questa qua[C]
per la tua[F] golosità[Am]
ti strofi[C]ni contro il mon[F]do
tanto il mon[D]do non ti avrà[G]
perché sei v[F]iva, v[C]iva
co[G]si' come sei[Am]
quanta vi[F]ta hai contagia[C]to
quanta vi[G]ta bruce[A4]rai
[A7]che sei [F]viva, [G]viva
per [G]quella che [Am]sei
niente ra[F]te, niente scon[C]ti
solo vi[G]va come vuoi.
Questa qua[Am] e' per te[C] e
non e' nie[F]nte facil[Am]e
dire quel[C]lo che non rie[F]sco
mentre tu[D] vuoi ridere[G]
perché sei v[F]iva, v[C]iva
co[G]si' come sei[Am]
quanta vi[F]ta mi hai passa[C]to
e non la [G]chiedi indietro [A4]mai
per[A7]ché sei v[F]iva, v[C]iva
per [G]quella che [Am]sei
sempre pron[F]ta, sempre ingor[C]da
sempre vi[G]va come vuoi.
(solo)
Autore ignoto: mi contatti!!

E //-----------|------------|-----------|------------|------------|--------2--|
B ||-----------|------------|----1-0----|------------|------------|-----1-----|
G ||-------0---|2------0--2-|---------2-|--0-0--2----|------------|-0---------|
D ||p----2-----|-----2------|-----------|----------2-|----------0-|-----------|
A ||-----------|------------|-----------|------------|----0-2-3---|-----------|
E //-------7------|
B ||-----7---7----|
G ||9h10----------|
D ||-----------10-| Sembra identica fino al ritornello
A ||--------------|
E \\--------------|

(solo)
[F]   [C]                                  
Questa qua[Am] e' per te   [C]
che sai [F]sempre scegliere[Am]
e io in[C]vece non ho scelta:[F]
te la devo[D] scrivere[G]       [C]
(ripete l'intro fine in C)

Important: The song above is NOT stored on the Chordie server. The original song is hosted at www.guitaretab.com. Chordie works as a search engine and provides on-the-fly formatting. Chordie does not index songs against artists'/composers' will. To remove this song please click here.

Text color:
Chord color:
Chord grids: 
Font size:    
Page size: 

A4 A7 Am C D D7 F G
variations - click chord images

Login - add to songbook

Transpose chords

Tuning

Rating click stars to rate

Layout
Accuracy

Jango Player

SHARE PAGE  




You need to log in to post comments