Guitar Tabs, Chords and Lyrics


Figlio Dun Cane   Ligabue



FIGLIO D'UN CANE- LIGABUE

TAB DI: KINGO92

Amo questa canzone e il suo assolo, e vedendo che la tab non si trovava da nessuna parte 
sono affidato al mio orecchio...mi sembra che giri quindi ho pensato di proporvela...è 
mia prima tab è l'ho fatta di fretta..quindi non prendetevela se non fa proprio al caso vostro!!

grazie


e:-----------------------------------------------------------9-10-11-12--------|
B:--8brb---------------------------------12r-10-12-10h12—12b------------10-10v-|
G:-----------------------9-9v—11p9--9h11---------------------------------------|
D:-----------7v-7h9—9/11-------------------------------------------------------|
A:-------7h9-------------------------------------------------------------------|
E:-----------------------------------------------------------------------------|

e:--------------------------12b-12bv-10\---------------------------------------|
B:--7br-5v-5h7-10v-10-12p10----------------17b-17b-17bvv-----------------------|
G:-----------------------------------------------------------------------------|
D:-----------------------------------------------------------------------------|
A:-----------------------------------------------------------------------------|
E:-----------------------------------------------------------------------------|


h=hammer
p=pull off
b=bend 1 tono
r=release
/=slide
v=vibrato


Important: The song above is NOT stored on the Chordie server. The original song is hosted at www.guitaretab.com. Chordie works as a search engine and provides on-the-fly formatting. Chordie does not index songs against artists'/composers' will. To remove this song please click here.

This song is displayed as text-only. Transposing and tuning is only available for chordpro-songs.

Login - add to songbook

Rating click stars to rate

Layout
Accuracy

SHARE PAGE  




You need to log in to post comments