""; ?> Urlando Contro Il Cielo by Ligabue - guitar chords, guitar tabs and lyrics - chordie

Urlando Contro Il Cielo

Ligabue


Urlando contro il cielo (live)
Ligabue
Italian translation
> = slittare col dito ... lo ha scritto la Letizia!
p = premere picchiando col dito senza usare il plettro
1|---2--------0--------------0-------------------| 2|-----2------5-------0---3----3-----------------| 3|------------6---2-1-----2------2---1-1-1-1-2-1-| 4|------------6---2-2-----0----------2-2-2-2-2-2-| 5|-------2->4-----2------------------2-----------| 6|----------------0------------------0-----------|
1|--2--------0-------------0-------2-2-2-2--2--2--2--2--0-| 2|----2------5-------0---3---3-----3-3-3-3--3--3--3--3--3-| 3|-----------6---2-1-----2-----2---2-2-2-2--2--2--2--2--2-| 4|-----------6---2-2-----0---------0-0-0-0--0--0--0--0--0-| 5|------2->4-----2----------------------------------------| 6|---------------0----------------------------------------|
1|----------------------------2-0----------------------| 2|---2-p3---2-p3---2-p3---2-3-----3-----2-0----3-2---0-| 3|---4----4-4----4-4------4---------4---2-2-2--1---2---| 4|---4------4------4------4-------------0-0----2---2---| 5|---------------------------------------------2---2---| 6|---------------------------------------------0---0---|
1|------------------------12--12-----------------------| 2|--10----12--12--10--10--10--10---10--10--12--12--10--| 3|---9-----9---9---9---9---9---9----9---9---9---9---9--| 4|--11----11------11------11--------0---0---0---0---0--| 5|---0-----0-------0-------0---------------------------| 6|-----------------------------------------------------|
1|--10---9------10---9-----| 2|--10--10--10--10--10--10-|
3|---9---9------11--11-----| 4|---0---0-------0---0-----| 5|-------------------------| 6|-------------------------|
1|------------------------12--12-----------------------| 2|--10----12--12--10--10--10--10---10--10--12--12--10--| 3|---9-----9---9---9---9---9---9----9---9---9---9---9--| 4|--11----11------11------11--------0---0---0---0---0--| 5|---0-----0-------0-------0---------------------------| 6|-----------------------------------------------------|
1|--10---9------10---9-----|------| 2|--10--10--10--10--10--10-|--10--| 3|---9---9------11--11-----|---9--| Fine dell' INTRO 4|---0---0-------0---0-----|--11--| 5|-------------------------|---0--| 6|-------------------------|------|
1|------------------------------------------| 2|------------------------------------------| 3|--7-7--7-7--7-7--7-7--9-9--9-9--9-9--9-9--| 4|--7-7--7-7--7-7--7-7--9-9--9-9--9-9--9-9--| 5|--5-5--5-5--5-5--5-5--7-7--7-7--7-7--7-7--| 6|------------------------------------------|
1|-- 2|-- 3|-- ecc... 4|-- 5|-- 6|--
see you soon!
Tabbed by Fabio Illuzzi (mail: filluzzi@tiscalinet.it)

























variations - click chord images
Transpose chords:
Tuning:
Cool service:
View: Size:
A  A  A
Rating:
Layout:
  • Currently 0/5 Stars.
  • 1
  • 2
  • 3
  • 4
  • 5
 
Accuracy:
  • Currently 2.7/5 Stars.
  • 1
  • 2
  • 3
  • 4
  • 5
 
click stars to rate
Chordie recommends:
Get acoustic guitar lessons and electric guitar lessons at JamPlay.com
Songbook:
Login to add this song to your songbook
Support the artist
Preview/buy this song
MSN Music
Why this non-profit ad?

 
login to add comments/video/corrections