Guitar Tabs, Chords and Lyrics


Ho Messo Via  Ligabue

B-----------------------------------------------------5-------7--|


G-----------0-------------------------------------------5-----7--|


D--------------5--4--0-------2--4--5------------0---5--------~7--|

A---2h0----------------3--3-------------2-2-2-3------------------|
E--------3-------------------------------------------------------|
Ho messo [G]via un po' di rumore
dico[C]no cosi' si fa nel como[Em]dino c'è una mina
e tonsille [C]da seimila [D]watt.
Ho messo [G]via i rimpiattini
dico[C]no non ho l'eta'
se si [Em]voltano un momomento
io ci ri[C]gioco perche' a [D]me...  [G]va. [C]   [Em]    [C]  [D]
Ho messo [G]via un po' di illusioni
che prima o [C]poi basta cosi'
ne ho messe [Em]via due o tre cartoni
comunque [C]so che sono [D]li'.
Ho messo [G]via un po' di consigli
dicon[C]o e' piu' facile
li ho messi [Em]via perche' a sbagliare
sono bra[C]vissimo da [D4]me.
[D]Mi sto fa[Bm]cendo un po' di posto
e che mi a[C]spetto chi lo sa
che posto [Em]vuoto ce n'è stato ce [C]n'e' ce ne sar[D4]a'.
[D]Ho messo [G]via un bel po' di cose
ma non mi [C]spiego mai il perche'
io non [Em]riesca a [D]metter via [G]te [C]
B------------------------------------------------5-------7--|
G-0-0-0-0------------------------------------------5-----7--|
D---------5--4--0-------2--4--5------------0---5--------~7--|
A-----------------3--3-------------2-2-2-3------------------|
E-----------------------------------------------------------|



Ho messo [G]via un po' di legnate
i segni [C]quelli non si puo'
che non e' il [Em]male ne' la botta
ma pur[C]troppo il livi[D]do.
Ho messo [G]via un bel po' di foto
che prende[C]ranno polvere
sia su ri[Em]morsi che rimpianti
che ran[C]cori e sui perc[D4]he'
[D]Mi sto fa[Bm]cendo un po' di posto
e che mi a[C]spetto chi lo sa
che posto [Em]vuoto ce n'è stato ce [C]n'e' ce ne sar[D4]a'.
[D]Ho messo [G]via un bel po' di cose
ma non mi [C]spiego mai il perche'
io non [Em]riesca a [D]metter via [G]te [C]
(solo tromba)
[G]    [C]    [Em]     [C]  [D]                      

[Bb]  In queste scarpe
[F]e su questa terra che [D]dondola
dondola dondola dondola
[Bb]  con il conforto di
[F]  un cielo che resta [D]li'
Mi sto fa[Bm]cendo un po' di posto
e che mi a[C]spetto chi lo sa
che posto [Em]vuoto ce n'e' stato ce[C] n'e' ce ne sa[D4]ra'.
[D]Ho messo [G]via un bel po' di cose
ma non mi [C]spiego mai il perche'
io non [Em]riesca a [D]metter via
[C7+]riesca a [D]metter via,
[Em]riesca a [D]metter via [G]te [C]

Important: The song above is NOT stored on the Chordie server. The original song is hosted at www.guitaretab.com. Chordie works as a search engine and provides on-the-fly formatting. Chordie does not index songs against artists'/composers' will. To remove this song please click here.

Text color:
Chord color:
Chord grids: 
Font size:    
Page size: 

Bb Bm C C7+ D D4 Em F G
variations - click chord images

Login - add to songbook

Transpose chords

Tuning

Rating click stars to rate

Layout
Accuracy

SHARE PAGE  




You need to log in to post comments