"yes"; ?> La Ballerina Del Carillon by Ligabue - guitar chords, guitar tabs and lyrics - chordie

La Ballerina Del Carillon

Ligabue

 BmF#mGA
e|--7----7-------5----9--|------12----9---12--------|
B|--7----7----7--7----7--|------10----10--14----10--|
G|-----------------------|----------------------11--|
D|-----------------------|--------------------------|
A|-----------------------|--------------------------|
E|-----------------------|--------------------------|
|------12----9---12--------|------------------------|
|------10----10--14----10--|------------------------|
|----------------------11--|----6h7p6---9-----7p6---|
|--------------------------|------------------------|
|--------------------------|------------------------|
|--------------------------|------------------------|


(Altra versione di Alessandro Marini)

(Intro/Riff)
SIm FA#m/LA FA#m SOL
e:|-7---7---7------|----------------|-5---5-----5---5-|-----------------|
B:|-7---7---7-10---|-7---7---7-10---|-7---7-----7---7-|-2^3-3---5---3-2-|
G:|-7---7----------|-6---6---6------|-6---6---6-------|-----------------| x
D:|----------------|-7---7----------|-----------------|-----------------| 2
A:|----------------|----------------|-----------------|-----------------|
E:|----------------|----------------|-----------------|-----------------|

1 . 2 . 3 . 4 . 1 . 2 . 3 . 4 . 1 . 2 . 3 . 4 . 1 . 2 . 3 . 4 .

 BmF#m
 Il night chiude alle tre
 GA
manda a nanna il professore
 BmF#m
 Donne con lui non ce n'e',
 GA
e' fatto cosi', non vuol pagare
 BmF#mGA
ma nanananana e' un compleanno su cui passare
 BmF#mGABm
 e nanananana brinda al suo pendolo ed al suo din-don

si alza la ballerina del carillon

L'ombra dipende dal neon
pensa la spogliarellista
e, intanto, stima il cammeo
che una tipa tiene in vista
ma, nanananana il seno casca e un cliente fischia
e, nanananana balla piu' in fretta e lancia cotillons

gira la ballerina del carillon

Sul piano del piano bar
ci son troppe poche mance
e, allora, va avanti a suonare
un pezzo buono per la pancia
ha, nanananana le dita gialle fra il bianco e il nero
e, nanananana forse un po' si diverte sul giro in sol

balla la ballerina del carillon


A Bm F#m G
variations - click chord images
Transpose chords:
Tuning:
Cool service:
View: Size:
A  A  A
Rating:
Layout:
  • Currently 2.9/5 Stars.
  • 1
  • 2
  • 3
  • 4
  • 5
 
Accuracy:
  • Currently 3.3/5 Stars.
  • 1
  • 2
  • 3
  • 4
  • 5
 
click stars to rate
Chordie recommends:
Learn how to play guitar at JamPlay.com
Songbook:
Login to add this song to your songbook
Support the artist
Preview/buy this song
MSN Music
Why this non-profit ad?

 
login to add comments/video/corrections