Guitar Tabs, Chords and Lyrics


Male Non Fara  Ligabue

[A]  [A4]   [D]                                
(TAB di Alessandro Marini)
(Intro/Verso/Outro) (piano arr. per chitarra)
LA LA
e:-----------------|-----------------|-----------------|-----------------|
B:-----2-----------|---3-3-2-2-0-0---|-----2-----------|---3-3-2-2-0-0---|
G:-----2-----------|---------------2-|-----2-----------|---------------2-|
D:(2)--------------|-----------------|-----------------|-----------------|
A:-0-------------0-|-----------------|-0-------------0-|-----------------|
E:-0-------0-3-0---|-----------------|---------0-3-0---|-----------------|

1 . 2 . 3 . 4 . 1 . 2 . 3 . 4 . 1 . 2 . 3 . 4 . 1 . 2 . 3 . 4 .

REsus2 . LA
e:-----------0-----|-----------0-----|-----------------|-----------------|
B:-----3--------2--|-2-------3---2---|-----2-----------|---3-3-2-2-0-0---|
G:-----2-----------|-------2---------|-----2-----------|---------------0-|
D:-0---------------|-----0-----------|-----------------|-----------------|
A:-0---------------|-----------------|-0-------------0-|-----------------|
E:-----------------|-----------------|---------0-3-0---|-----------------|

1 . 2 . 3 . 4 . 1 . 2 . 3 . 4 . 1 . 2 . 3 . 4 . 1 . 2 . 3 . 4 .


[A]Hei bella non[A4] ti vedo [A]bene
qualsiasi cosa, non[A4] lasciarti an[A]dare
son qu[D]a se vuoi son qu[D4]a abbiamo l'eta'_[A]______[A4]_
[A]ti posso of[E]frire una bottiglia
e spal[D4]le larghe[D] porta[A]guai  [A4]
[A]ti posso of[E]frire una bottiglia
e [G]spalle larghe, spalle larghe, spalle larghe
(C.S.)
Sai bella e' tutto nel riuscire
a conservarsi un uscio per uscire
son qua se vuoi son qua la chiave ce l'hai
e sara' gratis ma tu passa alla cas[D4]sa
con l'am[D]ore che vu[A]oi
non sara' [E]gratis ma tu passa alla [G]cassa e poi
cassa e poi, cassa e poi,
cassa e poi...
e appoggiati a [A]me
che s[A4]e ci do[A]vesse andar male
cadre[A4]mo insie[D]me  [D4]
e insi[D]eme sa[G]premo cade[D]re
e appoggiati a [A]me
con la[A4] pesan[A]tezza del cuore
[G]Dai deciditi che uohh[D]
male non fa[A]ra'

(solo)
| A4 A | D4 D | D4 D | G | D |

e -------------------------------------------|
b ----7--9--7--9--7--9--7--9--8--7-----------|
g --------------------------------------9-7--|
d -------------------------------------------|
a -------------------------------------------|
E -------------------------------------------|
------------------------------------|
--7--9--7--9--7--9--7--9--8--7------|
------------------------------------|
------------------------------------|
------------------------------------|
------------------------------------|
-------------------------------------|
-------------------------------------|
----9--7--------7--9--7--------------|
-----------9--7------------9--9--7---| alla via così
-------------------------------------|
-------------------------------------|


Dai bella lascia giu' un sorriso
lo pago bene te lo pago a peso
ce l'hai lo so ce l'hai
ce l'hai pronto li'_____
ho tutto il tempo che ci serve
[D4]io lo aspet[D]to [A]qui [A4]
[A]ho tutto il [E]tempo che ci serve
[G]io l'aspetto io l'aspetto
io l'aspetto____
e appoggiati a [A]me
che s[A4]e ci do[A]vesse andar male
cadre[A4]mo insie[D]me  [D4]
e insi[D]eme sa[G]premo cade[D]re
e appoggiati a [A]me
con la[A4] pesan[A]tezza del cuore
[G]Dai deciditi che uohh[D]
male non fa[A]ra'

Important: The song above is NOT stored on the Chordie server. The original song is hosted at www.guitaretab.com. Chordie works as a search engine and provides on-the-fly formatting. Chordie does not index songs against artists'/composers' will. To remove this song please click here.

Text color:
Chord color:
Chord grids: 
Font size:    
Page size: 

A A4 D D4 E G
variations - click chord images

Login - add to songbook

Transpose chords

Tuning

Rating click stars to rate

Layout
Accuracy

SHARE PAGE  




You need to log in to post comments