Guitar Tabs, Chords and Lyrics


Marlon Brando E Sempre Lui  Ligabue

e|---3-3---3-3---3-|---3-3---3-3---3-|


B|-3-----3-----3---|-1-----1-----1---|


G|-----------------|-----------------|

D|-----------------|-----------------|
A|-----------------|-----------------|
E|-----------------|-----------------|
e|---3-3---2-2---3-|-3---2-2---3---2-|
B|-3-----3-----3---|---3-----3---3---|
G|-----------------|-----------------|
D|-----------------|-----------------|
A|-----------------|-----------------|
E|-----------------|-----------------|
e:-3-----3-3---3-3-|-3-----3-3---3-3-|-3--3-2--2-3--3-|-2--2---3.-2.|
B:-3-----3-3---3-3-|-1-----1-1---1-1-|-3--3-3--3-3--3-|-3--3---3--3-|
G:-0---------------|-0---------------|----------------|-------------|X 2
D:-----------------|-----------------|----------------|-------------|
A:-----------------|-----------------|----------------|-------------|
E:-----------------|-----------------|----------------|-------------|
[G]Lui aveva un ve[C]cchio maggiol[D]one cabriolet
[G]sfatto ma piace[C]va tanto a [Am4/7]lei
[G]Arrivo' e col clac[C]son disse: "Sto a[D]spettando te"
Lei [G]scese profum[C]ata piu' che m[D]ai
Fecero due conti in tasca e videro che
non ci si ballava neanche un po'
lei gli disse: "Questa sera voglio far l'amore,
prima pero' portami a sognare".

[D] Un [Em]fascio di [C]luce va dal proiet[D]tore
[Bm]per un so[C]gno da duemila [D]li-[D]i-[D]i-[D]ire
[G]porti addosso [C]qualche segno [D]provero' a tirarteli via
[G]posso solo [C]questo sogno [D]scusa per la mia fantasia

[Em]giu' in platea se[Bm]die di legno
[C]gole secche [Am]per la sete d'er[D]oi
[D]E Marlon Brando e' sempre [G]lui
ooh [C]lui, ooh [D4]lui [D]
Marlon Brando e' sempre [G]lui
ooh [C]lui, ooh [D4]lui [D]
Un po' piu' avanti con negli occhi ancora tanto film
Terry Malloy infine, vince lui
Lui le dice come vedi siamo sempre qui
e non e' obbligatorio essere eroi

Un fascio di luce va dal maggiolone
carrellata per il lieto fi-i-i-i-ine

porti addosso qualche segno provero' a tirarteli via
posso solo questo sogno scusa per la mia fantasia
giu' in platea sedie di legno
gole secche per la sete d'eroi

[D]E Marlon Brando e' sempre [G]lui
ooh [C]lui, ooh [D4]lui [D]
Marlon Brando e' sempre [G]lui
ooh [C]lui, ooh [D4]lui [D]

Solo: G C D4 D (x3)

[G]Marlon Bra[C]ndo e' sempre[D4]       [D]lui
[G]Marlon Bra[C]ndo e' sempre[D4]       [D]lui

Finale: G C D4 D

(finale in G)

(Strum/Outro)(tastiera arr. per chit.)
SOL DO RE /SI /SOL RE /SI
/SOL
( / / / / / | / / / / / | / / / / / | / / / / /
[] 1 . 2 . 3 . 4 . 1 . 2 . 3 . 4 . 1 . 2 . 3 . 4 . 1 . 2 . 3 . 4
.

Important: The song above is NOT stored on the Chordie server. The original song is hosted at www.guitaretab.com. Chordie works as a search engine and provides on-the-fly formatting. Chordie does not index songs against artists'/composers' will. To remove this song please click here.

Text color:
Chord color:
Chord grids: 
Font size:    
Page size: 

Am Bm C D D4 Em G
variations - click chord images

Login - add to songbook

Transpose chords

Tuning

Rating click stars to rate

Layout
Accuracy

SHARE PAGE  




You need to log in to post comments