Guitar Tabs, Chords and Lyrics


Piccola Citta Eterna  Ligabue

[Intro] 

e:----0------------------|
B:--------3----2/3p2p0---|
G:--2---2--------------2-|
D:-----------------------|
A:-----------------------|
E:-----------------------|


[Riff da parte di Andrea Zanovello] 

La Re
--0-0-0-0-0---0-0-0---0-0-0-0-0-0----2-2-2-2-2---2-2-2---2-2-2-2-2-2---|
--3-3-3-2-3---3-2-3---3-2-3-2-0-2----3-3-3-2-3---3-2-3---3-2-3-2-0-2---|
--2-2-2-2-2---2-2-2---2-2-2-2-2-2----2-2-2-2-2---2-2-2---2-2-2-2-2-2---|    2v.
--2-2-2-2-2---2-2-2---2-2-2-2-2-2----0-0-0-0-0---0-0-0---0-0-0-0-0-0---|
-----------------------------------------------------------------------|
-----------------------------------------------------------------------|


[TAB di Alessandro Marini] 

Inoltre c'e' il riff che si sente sull'intro e che si ripete
in altri punti

[Intro] RE                      LA                  RE
e:----|---------|-------------|---------|---------|---------|-------------|
B:-5--|-3~~=====|======-2-3-2-|---------|------5--|-3~~=====|======-2-3-2-|
G:2-2-|---------|-------------|-2~~=====|=====2-2-|---------|-------------|
D:----|---------|-------------|---------|---------|---------|-------------|
A:----|---------|-------------|---------|---------|---------|-------------|
E:----|---------|-------------|---------|---------|---------|-------------|

4 1 2 3 4 1 2 3 . 4 . 1 2 3 4 1 2 3 4 1 2 3 4 1 2 3 . 4 .

LA RE SIm FA#m
e:---------|----------|---------|-------------|-2-------|-2-------|
B:---------|-------5--|-3~~=====|====-3-2-----|-3-------|-2-------|
G:-2~~=====|=====-2-2-|---------|-----2---4-2-|-4-------|-2-------|
D:---------|----------|---------|-----2-------|-4-------|-4-------|
A:---------|----------|---------|-------------|---------|---------|
E:---------|----------|---------|-------------|---------|---------|

1 2 3 4 1 2 3 4 1 2 3 4 1 2 3 . 4 . 1 2 3 4 1 2 3 4

RE MI
e:---------0-------|---------0-------|
B:-3-3-3-3---3-3-3-|-5-5-5-5---5-5-5-|
G:-2-2-2-2---2-2-2-|-4-4-4-4---4-4-4-|
D:-----------------|-----------------|
A:-----------------|-----------------|
E:-----------------|-----------------|

1 . 2 . 3 . 4 . 1 . 2 . 3 . 4 .

  [Riff] 
LA RE
e:-----------------|-----------------|-----------------|-----------------|
B:-3-3-3-2-3-----2-|-3-----2-3-2-----|-3-3-3-2-3-----2-|-3-----2-3-2-----|
G:-----------------|-------------4-2-|-----------------|-------------4-2-|x
D:-----------------|-----------------|-----------------|-----------------|2
A:-----------------|-----------------|-----------------|-----------------|
E:-----------------|-----------------|-----------------|-----------------|

1 . 2 . 3 . 4 . 1 . 2 . 3 . 4 . 1 . 2 . 3 . 4 . 1 . 2 . 3 . 4 .

  [Fill]LA
e:-----------------|-0-----0-----0---|
B:-2---------------|-2-----2-----2---|
G:-2---------------|---2-2---2-2---2-|
D:-2---------------|-----------------|
A:-----------------|-----------------|
E:-----------------|-----------------|

1 . 2 . 3 . 4 . 1 . 2 . 3 Regina_ha


Regina ha [D]quattro amanti e due o tremila [A4]nomi
e neanche un [D]uomo che la porti fuori un [A4]po'
ma, intanto, [D]tiene il letto pronto e il frigo pi[Bm]eno____[D]oo___
e ride in faccia alle com[Bm]ari che mugugnano[A4]
Ramengo con la luna piena va sui tetti
dice che e' per sentirsi piu' vicino a Dio
balla su case di prudenza e conti fatti
chissa' perche' la sua canzone sembra un miagolio

[A4]Gente persa in una
[D]piccola citta' eterna
[A4]piccola citta' testarda
[D]piccola citta' con gli occhi chiusi a me[A4]ta'
[Bm]    piccola citta' che cerchi in giro
e [D]spesso cio' che cerchi e' qua
c'e' chi la ama, chi la odia e [Bm]lei rimane piccol[A]a______
[A]a_____________________
  [ai]   [ai]   [ai]   [ai]   [ai]   [ai]   [aia]                 
Colera sottobraccio ha un pacco da sei birre
ed il diritto di sedersi dove puo'
a dar la nanna, un po' ad un altro brutto giorno___
se se la prende bene fischia e te ne offre un po'

[A4]Gente immersa in una
[D]piccola citta' gia' vista
[A4]piccola citta' che insiste
[D]piccola citta' con gli occhi aperti a me[A4]ta'
[Bm]    piccola citta' che, sana o no, un'[D]anima pero' ce l'ha
se ripassate fra cent'anni [Bm]ci trovate sempre [A]qua____
[A]a_____________________
  [ai]   [ai]   [ai]   [ai]   [ai]   [ai]   [aia]                 
E Radio Flit ancora spruzza il suo veleno
fatto da chi non riesce a farsi i cazzi suoi
c'e' chi la spegne e chi si sintonizza bene
o sei uno di loro o sei quello che tu vuoi

[A4]Gente sparsa in una
[D]piccola citta' eterna
[A4]piccola citta' testarda
[D]piccola citta' che chi si muove di [A4]qua?

Important: The song above is NOT stored on the Chordie server. The original song is hosted at www.guitaretab.com. Chordie works as a search engine and provides on-the-fly formatting. Chordie does not index songs against artists'/composers' will. To remove this song please click here.

Text color:
Chord color:
Chord grids: 
Font size:    
Page size: 

A A4 Bm D
variations - click chord images

Login - add to songbook

Transpose chords

Tuning

Rating click stars to rate

Layout
Accuracy

SHARE PAGE  




You need to log in to post comments