Guitar Tabs, Chords and Lyrics


Salviamoci La Pelle  Ligabue

e|-8-8-8-6---5---6-|---5-----------|


B|-6-6-6-6-6-6-6-6-|-6-6---8---6---|


G|-----------------|-----5-5-5-5-5-|

D|-----------------|---------------|
A|-----------------|---------------|
E|-----------------|---------------|
e|-8-8-8-6---5---6-|---5-----|
B|-6-6-6-6-6-6-6-6-|-6-6-6-8-|
G|-----------------|-------5-|
D|-----------------|---------|
A|-----------------|---------|
E|-----------------|---------|
e|-8-8-8-6---5---6-|---5-----------|
B|-6-6-6-6-6-6-6-6-|-6-6-6-6-8-6-8-|
G|-----------------|-----5-5-5-5-6-|
D|-----------------|---------------|
A|-----------------|---------------|
E|-----------------|---------------|
e|-8-x-x-8-x-x-8-x-| |
B|-8-x-x-8-x-x-8-x-| |
G|-----------------| |
D|-----------------| |
A|-----------------| |
E|-----------------| |
|---5-------5---|
|-6-6-6-6-8-6-8-|
|-----5-5-5---6-|
|---------------|
|---------------|
|---------------|
[E]Lui e lei hanno quel destino
[A9]scritto da altri, altre [D9]vite fa.
E' l'[E]unica cosa che hanno, o, almeno,
e' [A9]l'unica cosa in [D9]eredita'.
[E]Lei qualche volta gli dice: *Ti amo,
[A9]ma non puo' essere [D9]tutto qua,
[E]qua non c'e' niente per nessuno:
A9 D9 (Fill) E A9 D9 E A9 D9
andiamo via, andiamo, dai, andiamo, va*.

(TAB di Alessandro Marini)

(Fill)MI LA RE
e:------------|-------------------|-------------|-11-11-10----------|
B:-10~--------|-11-11-10--11--10--|-11----------|-----------13--11--|
G:------------|-------------------|-------------|-------------------|
D:------------|-------------------|-------------|-------------------|
A:------------|-------------------|-------------|-------------------|
E:------------|-------------------|-------------|-------------------|

1 2 3 4 1 . 2 . 3 . 4 . 1 2 3 4 1 . 2 . 3 . 4 .

[E]Lei ha la foto di sua madre,
[A9]un giorno o l'altro la [D9]guardera'
[E]che cosi' non vuole diventare,
[A9]che cosi', giura, mai [D9]non sara'.
[E]Lui, la foto di suo padre l'ha dentro,
[A9]impressa a fuoco nel[D9]l'anima,
[E]impressa ad alcool, botte e insulti:
*[A9]andiamo via, andia[D9]mo, dai, andiamo, va*.

Sal[B]viamoci la [E]pel[A9]le
che, bella o brutta, [D9]e' quella li':
rendiamola un[B]ica.
Salviamoci la [E]pel[A9]le
tu tieni botta e [D9]dimmi di si'
che e' [B]quello che co- e' quello che co- con[E]ta la la [A9]la la  [D9]   [B]
(Come sopra)

Lei ha lasciato una letterina:
ci ha messo un anno a scriverla.
Lui ha lasciato sul comodino
due lire che suo padre berra'.
Bevono gia' molto i loro amici:
scappano via soltanto cosi',
solo che la mattina dopo son sempre li',
son sempre li', son sempre li'.

Salviamoci la pelle
che, bella o brutta, e' quella li':
rendiamola unica.
Salviamoci la pelle!
Tu tienti stretta e dimmi di si'
che e' quello che co- e' quello che co- conta la la la la

*[E]Verso che cosa andiamo?* lei chiede.
[A9]Lui dice *Beh, questo non si sa,
[D9]pero' sappiamo bene cosa[F#m7] non c'era qua, non c'era qua, non c'era*.
[E]Poi lei si volta per un momento,
[A9]guarda quel posto ed accenna un ciao.
[D9]Lui a quel posto gli sputa contro
e [F#m7]spinge sul gas.

Sal[E]viamoci la, salviamoci la pelle,
Sal[A9]viamoci la, salviamoci la pelle,
Sal[D9]viamoci la, salviamoci la pell[B]e
che e' quello che ci resta.
Sal[E]viamoci la, salviamoci la pelle,
Sal[A9]viamoci la, salviamoci la pelle,
Sal[D9]viamoci la, salviamoci la pell[B]e

che e' quello che ci resta.

Fine: E A9 D9 B E


Important: The song above is NOT stored on the Chordie server. The original song is hosted at www.guitaretab.com. Chordie works as a search engine and provides on-the-fly formatting. Chordie does not index songs against artists'/composers' will. To remove this song please click here.

Text color:
Chord color:
Chord grids: 
Font size:    
Page size: 

A9 B D9 E F#m7
variations - click chord images

Login - add to songbook

Transpose chords

Tuning

Rating click stars to rate

Layout
Accuracy

SHARE PAGE  




You need to log in to post comments