Guitar Tabs, Chords and Lyrics


Sara Un Bel Souvenir  Ligabue

e:--------------------------------------|


B:--------------------------------------|


G:-4---2---0----------------------------|

D:---4---2----5-4-3-2-1--1-3-0----------|
A:-----------------------------0-3------|
E:---------------------------------4-5--|
e:-0------|
B:---2----|
G:-----2--|
D:--------|
A:--------|
E:--------|
    [G]           [A]           [Bm]          [F#m]                                           
e|--3--3-------0--0-------2-2-------2--2-----|
B|--3-----3----2-----2----3---3h4---2-----2--|
G|--0------0---2------2---4------5--2------2-|
D|--0----------2----------4---------4--------|
A|--2----------0----------3---------4--------|
E|--3-------------------------------2--------|

    [G]           [A]                 [F#m]          [G]    [A]                                 
e|--3--3-------0--0-------------2--2------3---0---|
B|--3-----3----2-----2----------2-----2---3---2---|
G|--0------0---2------(2)-------2------2--0---2---|
D|--0----------2----------------4---------0---2---|
A|--2----------0----------------4---------2---0---|
E|--3----------------------5-4--2---------3-------|

    [G]           [A]           [Bm]          [F#m]                                           
e|--3--3-------0--0-------2-2-------2--2-----|
B|--3-----3----2-----2----3---3h4---2-----2--|
G|--0------0---2------2---4------5--2------2-|
D|--0----------2----------4---------4--------|
A|--2----------0----------3---------4--------|
E|--3-------------------------------2--------|

    [G]           [A]                 [Em]         [G]    [A]                                  
e|--3--3-------0--0-------------0--0------3---0---|
B|--3-----3----2-----2----------0-----0---3---2---|
G|--0------0---2------(2)-------0------0--0---2---|
D|--0----------2----------------2---------0---2---|
A|--2----------0----------------2---------2---0---|
E|--3----------------------3-2--0---------3-------|

Non [G]e' proprio liscia,
non [A]va cosi' liscia
per [Bm]noi che chiediamo che or[F#m]'e',
e c'[G]e' un'altra strada
e c'[A]e' un'altra luna
e un [F#m7]altro bar che chiude
e un'[G]altra voglia [A]di fortuna.
E al[G]lora, bambina,
c'e' [A]poco da dire
se [Bm]non che mi troverai [F#m]qua:
cam[G]biato per niente, ma ne[A]anche scontento,
fot[Em]tuto dal dovere pen[G]sare di do[A]ver avere.
[Bm]Ma ci sara' un souve[A]nir
che [F#m]ci riportera' solo [G]certi mo[A]menti.
[Bm]E sara' un bel souve[A]nir
u[F#m]na fotografia, una can[G]zone fra i [A]denti.
[Bm]Ma ci sara' un souve[A]nir
che [F#m]ci commuovera' fino a [G]farci con[A]tenti.
[Bm]Tieniti il tuo souve[A]nir
da [F#m]mettere via poi ridi[G]cendoti *a[A]vanti*.
Come l'intro: Bm G D A (x2)


Se [G]tutto va in fretta
sa[A]ro' una saetta
e [Bm]tu lo sarai insieme a [F#m]me
pec[G]cato soltanto che [A]ci sara' il tempo
in [Em]cui dovremo dire:
*A[G]desso e' giusto [A]riposare*.
[Bm]Ma ci sara' un souve[A]nir
che [F#m]ci riportera' solo [G]certi mo[A]menti.
[Bm]E sara' un bel souve[A]nir
u[F#m]na fotografia, una can[G]zone fra i [A]denti.
[Bm]   Un souven[A]ir formato T[F#m]ir
a centove[G]nti al[A]l'ora
[Bm]   arriva l[A]i' spazzando v[F#m]ia
qualsiasi al[G]tra [A]cosa.
Solo: G A Bm F#m G A Em G A

G <----'Martellato'

[Bm]Sara' un bel souvenir
[A]il nostro souvenir
[F#m]sara' di quasi [G]tutti i co[A]lori.
[Bm]Sara' un bel souvenir,
[A]sara' lo specchio di
[F#m]riflessi chia[G]ri e riflessi [A]scuri. (x2)

[Bm]La la la la la la [A]la la  [F#m]    [G]  [A]   (x2)
[Bm]La la la la la la [A]la la
la [F#m]la la la la la la la
[G]la la la [A]la la
Bm A F#m G A Bm <---Rallentando
La la la la la la la la

Important: The song above is NOT stored on the Chordie server. The original song is hosted at www.guitaretab.com. Chordie works as a search engine and provides on-the-fly formatting. Chordie does not index songs against artists'/composers' will. To remove this song please click here.

Text color:
Chord color:
Chord grids: 
Font size:    
Page size: 

A Bm Em F#m F#m7 G
variations - click chord images

Login - add to songbook

Transpose chords

Tuning

Rating click stars to rate

Layout
Accuracy

SHARE PAGE  




You need to log in to post comments