Guitar Tabs, Chords and Lyrics


Ultimo Tango A Memphis   Ligabue


e:-----------------|-----------------|-----------------|------------------|
B:-4-4---------5-5-|-2-2-------------|-4-4---------5-5-|-2-2--------------|
G:-4-4---------4-4-|-2-2-------------|-4-4---------4-4-|-2-2------------2-|
D:-4-4-------------|-2-2-------------|-4-4-------------|-2-2--------2242--|
A:-----------------|-----------------|-----------------|------------------|
E:-----------------|-----------------|-----------------|------------------|





 | 1 . 2 . 3 . 4 . | 1 . 2 . 3 . 4 . | 1 . 2 . 3 . 4 . | 1 . 2 . 3 . 4


.  |


                                                                                 


e:-----------------|-----------------|-----------------|------------------|
B:----------)------|----------)------|--)--------------|------------------|
G:---------4-------|-------2-6-------|-4---------------|-2---1------------|
D:-----------------|-----------------|-----------------|---------2--------|
A:-----------------|-----------------|-----------------|------------------|
E:-----------------|-----------------|-----------------|------------------|








   SI                LA


                                                                                 


e:-----------------|-----------------|
B:-4-4---------5-5-|-2-2-------------|
G:-4-4---------4-4-|-2-2-------------|
D:-4-4-------------|-2-2-------------| [Fill 1]MI(4)
A:-----------------|-----------------|-----------------|-----------------|
E:-----------------|-----------------|-----------------|-----------------|





 | 1 . 2 . 3 . 4 . | 1 . 2 . 3 . 4 .


                                                                                 


|-2-1-----2-1-----|-2-1-------------|
e:-----------------|-----------------|-----2-------2---|-----2---2-1-----|
B:----------)------|----------)------|-----------------|-------------2---|
G:---------4-------|-------2-6-------|-----------------|-----------------|
D:-----------------|-----------------| 1 . 2 . 3 . 4 . | 1 . 2 . 3 . 4





.


                                                                                 


A:-----------------|-----------------|
E:-----------------|-----------------|








 MI


  Camminero'


 LA


  fuori e dentro di me


 SI        LA            MI


  fuori da chi mi avete chiesto


 MI


  E vi lascero'


 LA


  in giro i giochi che ho


 SI        LA                   MI4 [Fill 1]


  voi fate pure, io intanto non cresco





    LA       MI              [Fill 2]


[Rit] Ultimo tango a Memphis,





  [Fill 2] 


                                                                                 


e:-------------------------|----------------------|
B:12\10--10-10-10\9--9--9--|-9\7--7--7--7\5--5--5-|
G:-------------------------|----------------------|
D:-------------------------|----------------------|
A:-------------------------|----------------------|
E:-------------------------|----------------------|



Important: The song above is NOT stored on the Chordie server. The original song is hosted at www.guitaretab.com. Chordie works as a search engine and provides on-the-fly formatting. Chordie does not index songs against artists'/composers' will. To remove this song please click here.

This song is displayed as text-only. Transposing and tuning is only available for chordpro-songs.

Login - add to songbook

Rating click stars to rate

Layout
Accuracy

SHARE PAGE  




You need to log in to post comments