eToCache5 = ""; ?> Lucky You by Lightning Seeds - guitar chords, guitar tabs and lyrics - chordie

Lucky You

Lightning Seeds

 EmAm7D
 You're lying again       
 GG/F#Em
you say you don't but then you do                          
 Am7D
I'm trying again          
 GG/F#Em
To build a wall around your heart        
 Am7DG
then break it through, to you              
 G/F#Em
You make it happen

BRIDGE:

 Am7G
Ooooh Oooooh Waay Ooooh                    
 Am7G
Ooooh Oooooh Waay Ooooh ooh ooh waay ooh                            

CHORUS:

 CDEmF#mG
 Everythings blue now, Oh lu___cky you             
 Am7Bm7
Oh lucky you          
 Am7Bm7
there's nothing to lose             
 Bm7D
so if it's really true
 Em7AEm7AG
Oh lucky you                         

SOLO: X2 (Same chords as verses)

E:-------------------------------------------------------------------|
B:---5---3--5---6--5--3---5---3-5---6--5--3----------5---------------|
G:---------------------------------------------------5---4-----------|
D:-------------------------------------------------------------------|
A:-------------------------------------------------------------------|
E:-------------------------------------------------------------------|


VERSE 2:

You're chasing the moon
reaching out to touch the stars
but you land to soon
what will it take to make you see
the way things really are
you've got this far
so let it happen

VERSE 3:

You're lying again
give it up and tell the truth
you can't stop the rain
it's gonna fall on every roof
I've got the proof
and only you
can make it happen

BRIDGE:

CHORUS:

OUTRO:

 Am7GDAm7GEm
E:----------------------------------------------------3---------------|
B:---5---6---5-3---5-------------5---6--5--3-------6--5---------------|
G:-------------------------5------------------------------------------|
D:--------------------------------------------------------------------|
A:--------------------------------------------------------------------|
E:--------------------------------------------------------------------|


Repeat to fade:

By Sam Galloway UK
Cheers!!


A Am7 Bm7 C D Em Em7 F#m G G/F#
variations - click chord images
Transpose chords:
Tuning:
Cool service:
View: Size:
A  A  A
Rating:
Layout:
  • Currently 2.8/5 Stars.
  • 1
  • 2
  • 3
  • 4
  • 5
 
Accuracy:
  • Currently 2.6/5 Stars.
  • 1
  • 2
  • 3
  • 4
  • 5
 
click stars to rate
Chordie recommends:
Check out these online guitar lessons
Songbook:
Login to add this song to your songbook
Support the artist
Preview/buy this song
MSN Music
Why this non-profit ad?

 
login to add comments/video/corrections