Guitar Tabs, Chords and Lyrics


A Pack Of Dogs   Lightyear



--------------------------------PLEASE NOTE--------------------------------#






Author/Artist: lightyear 
Title: pack of dogs
Album: call of the weasel clan
Transcribed by: paul
Email: aint life a bitc_h@hotmail.com

-|------------------------|x4---x8--8--8--x8--x8--x8---x666-x6x6x6x6--|------
-|------------------------|-----x10-10-10-x10-x10-x10--x666-x6x6x6x6--|------
-|-10---------------------|-----x10-10-10-x10-x10-x10--x777-x7x7x7x7--|------
-|-10-----10-----8----10--|-----x10-10-10-x10-x10-x10--x888-x8x8x8x8--|------
-|--8-----10-----8----10--|-------------------------------------------|------
-|---------8-----6-----8--|-------------------------------------------|------
       intro                           ska +verse(rhythm's a bit off)         

-|---------------------------------|----------------------|------------------
-|---------------------------------|----------------------|------------------
---10-10-10-10-10-10---------------|--10------------------|------------------
-|-10-10-10-10-10-10--10-10--8-8---|--10---10--8---10--8--|------------------
-|--8--8--8--8--8--8--10-10--8-8---|---8---10--8---10--8--|------------------
-|---------------------8--8--6-6---|--------8--6----8--6--|------------------
           chorus                           "well look at me......            

-|-8---|--------------------------|----------------|-------------------------
-|-10--|--------------------------|----------------|-------------------------
-|-10--|------------5555---3333---|----------------|-------------------------
-|-10--|-33333333---5555---3333---|----------------|-------------------------
-|-----|-33333333---3333---1111---|--8888---1010---|-------------------------
-|-----|-11111111-----------------|--6666----8-8---|-------------------------
  middle         fast bit            ....    . .  fill before second verse    


for the middle just let that chord ring out
watch the timing on the fast end bit. 
on the verse the chords are right just figure out 


Important: The song above is NOT stored on the Chordie server. The original song is hosted at www.guitaretab.com. Chordie works as a search engine and provides on-the-fly formatting. Chordie does not index songs against artists'/composers' will. To remove this song please click here.

This song is displayed as text-only. Transposing and tuning is only available for chordpro-songs.

Login - add to songbook

Rating click stars to rate

Layout
Accuracy

SHARE PAGE  




You need to log in to post comments