Chordie logo


Angry Queen   Limp Wrist



-------------------------------------------------------------------------------
Angry Queen - Limp Wrist
Thee Official Limp Wrist Discography
-------------------------------------------------------------------------------
Tabbed by: axeslash
Email: holmzito@yahoo.com

Tuning: Both guitars Standard (EADGBe)

Guitars 1 & 2:
e|--------------------------------------------------|
B|--------------------------------------------------|
G|-7--7--10--5--8--8--6-----7--7--10--5--8--8--6----|
D|-7--7--10--5--8--8--6--6--7--7--10--5--8--8--6----|
A|-5--5---8--3--6--6--4--6--5--5---8--3--6--6--4----|
E|-----------------------4--------------------------| x2

Guitars 1 & 2:
e|-------------------------------------------------------------------------|
B|-------------------------------------------------------------------------|
G|-7-7-7-7-7-7-7-7-10-10-10-10-10-10-10-10-6-6-6-6-6-6-6-6-6-6-6-6-6-6-6-6-|
D|-7-7-7-7-7-7-7-7-10-10-10-10-10-10-10-10-6-6-6-6-6-6-6-6-6-6-6-6-6-6-6-6-|
A|-5-5-5-5-5-5-5-5--8--8--8--8--8--8--8--8-4-4-4-4-4-4-4-4-4-4-4-4-4-4-4-4-|
E|-------------------------------------------------------------------------|

Guitars 1 & 2:
e|----------------------------------------------------------|
B|----------------------------------------------------------|
G|-7-7-7-7-7-7-7-7-10-10-10-10-10-10-10-10-6----------------|
D|-7-7-7-7-7-7-7-7-10-10-10-10-10-10-10-10-6----------------|
A|-5-5-5-5-5-5-5-5--8--8--8--8--8--8--8--8-4----------------|
E|----------------------------------------------------------|

Guitar 1:
e|--------------------------------------------------|
B|--------------------------------------------------|
G|-7--7--10--5--8--8--6-----7--7--10--5--8--8--6----|
D|-7--7--10--5--8--8--6--6--7--7--10--5--8--8--6----|
A|-5--5---8--3--6--6--4--6--5--5---8--3--6--6--4----|
E|-----------------------4--------------------------|

Guitars 1 & 2:
e|--------------------------------------------------------|
B|--------------------------------------------------------|
G|-7--7--10--5--8--8--6-----7--7--10--5--8--8--6--6--7----|
D|-7--7--10--5--8--8--6--6--7--7--10--5--8--8--6--6--7----|
A|-5--5---8--3--6--6--4--6--5--5---8--3--6--6--4--4--5----|
E|-----------------------4--------------------------------|


| /  slide up
| \  slide down
| h  hammer-on
| p  pull-off
| ~  vibrato
| +  harmonic
| x  Mute note


Important: The song above is NOT stored on the Chordie server. The original song is hosted at www.guitaretab.com. Chordie works as a search engine and provides on-the-fly formatting. Chordie does not index songs against artists/composers will. To remove this song please click here.

This song is displayed as text-only. Transposing and tuning is only available for chordpro-songs.

Login - add to songbook

Rating click stars to rate

Layout
Accuracy

SHARE PAGE  




You need to log in to post comments