Chordie logo


Faint   Linkin Park



-----------------------------------------------------------------------------
			     Faint - Linkin Park
-----------------------------------------------------------------------------
Tabbed by: Shifty
Email: av_Shifty_lp@hotmail.com

Tuning: Standard

Intro A (Guitar 1)
(First Time)
e-----------|------------------------------------------------|
B-----------|------------------------------------------------|
G--6-6-6-6--|-6-6-6--13-13--11-11-11-11-11-11--13-13--9-9-9--|
D--x-x-x-x--|-x-x-x--x--x---x--x--x--x--x--x---x--x---x-x-x--| x4
A--4-4-4-4--|-4-4-4--11-11--9--9--9--9--9--9---11-11--7-7-7--|
D-----------|------------------------------------------------|

Intro B (Guitar 2)
e------------------------------------------------------------------|
B------------------------------------------------------------------|
G------------------------------------------------------------------|
D--0-0-0-0-0-0-0--3-3-3-3-3-3-3--7-7-7-7-7-7-7--4-4-4-6-6-2-2-2----| x2
A--0-0-0-0-0-0-0--3-3-3-3-3-3-3--7-7-7-7-7-7-7--4-4-4-6-6-2-2-2----|
D--0-0-0-0-0-0-0--3-3-3-3-3-3-3--7-7-7-7-7-7-7--4-4-4-6-6-2-2-2----|

Verse 1
e----------------------------------------------------------------|
B----------------------------------------------------------------|
G----------------------------------------------------------------|
D--11-11--11-11--11-11--7-7--9-9---------------------------------| x1
A--11-11--11-11--11-11--7-7--9-9---------------------------------|
D--11-11--11-11--11-11--7-7--9-9---------------------------------|
("I am, a little bit of...")

Chorus (Guitar 1)
e-----------|------------------------------------------------------------- |
B-----------|------------------------------------------------------------- |
G--6-6-6-6--|-6-6-6--13-13--11-11-11-11-11-11--13-13--9-9-9--------------- |
D--x-x-x-x--|-x-x-x--x--x---x--x--x--x--x--x---x--x---x-x-x-- x3 --------- |
A--4-4-4-4--|-4-4-4--11-11--9--9--9--9--9--9---11-11--7-7-7--------------- |
D-----------|------------------------------------------------------------- |
|
Chorus (Guitar 2) |
e--------------------------------------------------------------------------- |
B--------------------------------------------------------------------------- |
G--------------------------------------------------------------------------- |
D--0-0-0-0-0-0-0--3-3-3-3-3-3-3--7-7-7-7-7-7-7--4-4-4-6-6-2-2-2---- x1 --|-- |
A--0-0-0-0-0-0-0--3-3-3-3-3-3-3--7-7-7-7-7-7-7--4-4-4-6-6-2-2-2---- |------- |
D--0-0-0-0-0-0-0--3-3-3-3-3-3-3--7-7-7-7-7-7-7--4-4-4-6-6-2-2-2---- |------- |
| |
Chorus (Last time through) (Guitar 1) | |
e------------------------------------------------------------------- 

Important: The song above is NOT stored on the Chordie server. The original song is hosted at www.guitaretab.com. Chordie works as a search engine and provides on-the-fly formatting. Chordie does not index songs against artists/composers will. To remove this song please click here.

This song is displayed as text-only. Transposing and tuning is only available for chordpro-songs.

Login - add to songbook

Rating click stars to rate

Layout
Accuracy

SHARE PAGE  




You need to log in to post comments