Chordie logo
content loaded from cache

Hello  Lionel Richie

Am9 G6 Fmaj7 A Dm G C F Bb E E7/B Am/C A9 Am/E e
e | 0 | 0 | 0 | 0 | 1 | 3 | 0 | 1 |(1)| 0 | 0 | 0 | 0 | 0 | 0
B | 0 | 3 | 1 | 2 | 3 | 0 | 1 | 1 | 3 | 0 | 3 | 1 | 0 | 1 | 0
G | 5 | 4 | 2 | 2 | 2 | 0 | 0 | 2 | 3 | 1 | 1 | 2 | 6 | 2 | 1
D | 7 | 5 | 3 | 2 | 0 | 0 | 2 | 3 | 3 | 2 | 2 | 2 | 7 | 2 | 2
A |(0)| | | 0 | | | 3 |(3)| 1 | 2 | 2 | 3 | 0 | |
E | | (3) | (2) | | | 3 | |(1)| | 0 | 0 | 0 | | |(0)



| Am9 . G6 . | Fmaj7 . G6 Fmaj7
| Am9 . G6 . | Fmaj7 . G6 Fmaj7
I've

[Am9]been alone with yo[G6]u inside m[Fmaj7]y mind, [G6]    [Fmaj7]   and

[Am9]in my dreams I've k[G6]issed your lips [Fmaj7]   a thousand time[G6]s... [Fmaj7]     I

[Am9]sometimes see you pa[G6]ss outside my [Fmaj7]  door [G6]     [Fmaj7]    Hel-


[Am9]-lo,    [G6]     is it m[Fmaj7]e you're looking for[A]?  I can

[Dm]see it in your eye[G]s, I can [C]see it in your smil[F]e;  you're

Bb Am/E e Am E7/B Am/C E7/B
all I've ever wanted and my arms are open wide. 'Cause you

[Dm]know just what to say[G] and you k[C]now just what to do[F];  and I

Bb Am/E e Am9 . G6 . Fmaj7 . G6 Fmaj7
want to tell you so much, I love you

| Am9 G6 | Fmaj7 G6 Fmaj7 |


I [Am9]long to see the s[G6]unlight in you[Fmaj7]r hair,[G6]     [Fmaj7]    and

Am9 G6 . Fmaj7 G6 Fmaj7
tell you time and time again, how much I care. Some-

Am9 G6 Fmaj7 . G6 Fmaj7
-times I feel my heart will overflow

Am9 G6 Fmaj7 A .
He-llo, I've just got to let you know 'cause I

Dm G C F .
wonder where you are and I wonder what you do. Are you

[Bb]somewhere feeling lo[E]nely or is [Am/E]someone lo[E7/B]ving yo[Am/C]u?    [E7/B]   Tell me

h[Dm]ow to win your h[G]eart for I[C] haven't got a[F] clue; but

Bb Am/e e Am9 . G6 . Fmaj7 . G6 Fmaj7
let me start by say - ing, I love you

Am9 . G6 . | Fmaj7 . G6 Fmaj7

Solo:
| Am9 . G6 . | Fmaj7 . G6 Fmaj7
E----|-----------------------------------------|---------------------5---7|__
B----|----------3--5-h6--3-h5------------------|----//5p3-------//5---5--|
G----|-2-h4-h5-----------------5//7\4-----5p4|2------------------------|
D--2-|-----------------------------------------|--------------------------|
A----|-----------------------------------------|--------------------------|
E----|-----------------------------------------|--------------------------|


Am9 . G6 . | Fmaj7 . G6 Fmaj7 |
E__7----8--5--7p3---5----/3-/3--|-/3-----------------3------------10--|
B----------------------5--/5-/5--|-/5----5--------/5-----3-------------|
G--------------------------------|-------5----5------------------------|
D--------------------------------|-------------------------------------|
A--------------------------------|-------------------------------------|
E--------------------------------|-------------------------------------|


Am9 . G6 . | Fmaj7 . G6 Fmaj7 |
E--/12-/13--12-----10---/12-10---87|-/8--5-53/5-----------5----7|
B------------------------------------|--------------------/5---5---|
G--/9--/10---9-----7----/9--7----54|-/5--2-2/2-----------------|
D------------------------------------|-----------------------------|
A------------------------------------|-----------------------------|
E------------------------------------|-----------------------------|


Am9 . G6 . | Fmaj7 . A .
E__7--8--5--7p3---5----------|------------------------------9--------|(10)
B--------------------5-------|---------------------------10-6--------|
G----------------------------|--------------------2-6-9--7-----------|
D----------------------------|---------------------------------------|
A----------------------------|--------------------0-4-7--------------|
E----------------------------|---------------------------------------|

Hello, is it me you're looking for? 'Cause I

Dm . G . C . F .
won-der where you are... and I wonder what you do. Are you

Bb . E . Am9 E7/B Am/C E7/B
somewhere feeling lonely or is someone loving you? Tell me

Dm . G . C . F .
how to win your heart for I haven't got a clue; but

Bb . Am/E e Am9 . G6 . Fmaj7 . G Fmaj7 | A
let me start by say-ing: I love you



}}} hope you like it,
---mark K

Important: The song above is NOT stored on the Chordie server. The original song is hosted at www.guitaretab.com. Chordie works as a search engine and provides on-the-fly formatting. Chordie does not index songs against artists/composers will. To remove this song please click here.

A Am/C Am/E Am9 Bb C Dm E E7/B F Fmaj7 G G6
variations - click chord images

Transpose chords

Tuning

Rating click stars to rate

Layout
Accuracy

SHARE PAGE  

You need to log in to post comments

jhunpidong75 (report)

nice bro. good notes.

monawana (report)

Cool man this really help me