Chicharos Magicos

Liquits

-----------------------------------------------------------------------------

-----------------------------------------------------------------------------
e [--------3---------2---] e [------3-------2---]
B [------3---3-----2---2-] B [----3---3-----2---]
G [----------------------] X 7 G [------------------]
D [----5---------4-------] D [--5-----------4---]
A [----------------------] A [------------------]
E [----------------------] E [------------------]
e [--------8----------7---] e [-------8-------7---]
B [------8---8------7---7-] B [-----8---8-----7---]
G [-----------------------] X 3 G [-------------------]
D [---10----------9-------] D [--10-----------9---]
A [-----------------------] A [-------------------]
E [-----------------------] E [-------------------]
e [--10----8--7---8---]
B [--12---10--9--10---]
G [-------------------] X 5
D [-------------------]
A [-------------------]
E [-------------------]
e [----------------------------------]
B [----------------------------------]
G [----------------------------------] X 2
D [----------------------------------]
A [--10--9/--10--9---10--9/--10--9---]
E [---8--7/---8--7----8--7/---8--7---]
e [------------------------0--------------------]
B [----------3----------------------------------]
G [----0---0---------0---0---------0---0---15/--]
D [------2-------------2-------------2----------]
A [--3-------------3-------------3--------------]
E [---------------------------------------------]

END SONG WITH THIS
e [-------------]
B [-------------]
G [-----0---0---]       X  33 TIMES
D [-------2-----]
A [---3---------]
E [-------------]


LISTEN THE SONG

http://www.liquits.com.mx/

http://www.myspace.com/liquits


variations - click chord images
Transpose chords:
Tuning:
Cool service:
View: Size:
A  A  A
Rating:
Layout:
  • Currently 0/5 Stars.
  • 1
  • 2
  • 3
  • 4
  • 5
 
Accuracy:
  • Currently 2/5 Stars.
  • 1
  • 2
  • 3
  • 4
  • 5
 
click stars to rate
Chordie recommends:
Check out JamPlay.com for online video guitar lessons
Songbook:
Login to add this song to your songbook
Support the artist
Preview/buy this song
MSN Music
Why this non-profit ad?

 
login to add comments/video/corrections