eToCache5 = ""; ?> Do You Sleep by Lisa Loeb - guitar chords, guitar tabs and lyrics - chordie

Do You Sleep

Lisa Loeb



 F#244322
 E      022100
Esus 022200
G 355400 Open stringed chord
A(open)577600 Open stringed chord
B 799800 Open stringed chord
E(open)079900 Open stringed chord
A x02220
Asus x02200
A#4 x02240
C#m x46654
F#m7 x42222
G#m7 x64444
e----------0--------0----------0---------------------------------------------
B----------0--------0----------0---------------------------------------------
G----------6--------6----------6-----6---------------------------------------
D-------6--------6----------6--------6---------------------------------------
A----4-------------------4---------------------------------------------------
E-------------5-------------------5------------------------------------------
e----------0--------0----------0---------------------------------------------
B----------0--------0----------0---------------------------------------------
G----------6--------6----------6-----6---------------------------------------
D-------6--------6----------6--------6---------------------------------------
A----4-------------------4---------------------------------------------------
E-------------5-------------------5------------------------------------------
E---------------0-------------------------------0----------------------------
B---------0--------------------0----------0--------------------0-------------
G------------6-----6-----------6-------------6-----6-----------6-------------
D------6--------------6--------6-------6--------------5--------6-------------
A---4-------------------------------4----------------------------------------
E------------------------5--5----------------------------5--5----------------

 F#AAsus
e----------------0-----------------2--2-xx--2----0--0-xx-0-------------------
B----------0------------------0----2--2-xx--2----2--2-xx-0-------------------
G-------------6-----6---------6----3--3-xx--3----2--2-xx-2-------------------
D-------6--------------6------6----4--4-xx--4----2--2-xx-2-------------------
A----4-----------------------------4--4-xx--4----0--0-xx-0-------------------
E------------------------5--5------2--2-xx--2--------------------------------

(right here the electrit guitar just
appegiates the F# and Asus chords).
Here Play the G and A chords as open stringed chords
G 355400 and A 577600 But with a normal E chord
And also the B, E and A pattern as open chords
E 079900 and B 799800 and A 577600
 EGA
    I saw you as you walked across my room.  You looked out the window you
 GEEsusEGA
    looked at the moon.  And you sat on the corner of my bed, and you smoked
 GEEsusEBEB
    with the ghost in the back of my head.  Now I don't know, and I don't care,
 EBABEBEBEB
    if I ever will see you again.  I don't know, and I don't carif I ever will
 AB
    be there,  oh......
(from here go back to the Appegiated riff fromt he begging and do that
again, then proceed with these chords)
 A#4C#mA#4C#m
    You kick my foot under the table.  I kick you back; I can't say I'm able
 A#4C#mG#m7AA#4C#m
    to stand for you or fall for you ever a gain.  Wish for a perfect setting?
 A#4C#mA#4C#mG#m7A
    Wishing that I am letting you take me where you want me all over again?
F#m7 G#m7 C#m7 F#m7 G#m7 C#m ? A E B
You can't give your self absolutely to some one else. And i don't know
 EBEBABEBE
    And I don't carif I ever will see you again.  I don't know, and I don't
 BEBABEGA
    care if I ever will be there.  I saw you as you walked across my room.
 GEEsusE
    You looked out the window, you looked at the moon.  And you sat on the
 GAGEEsusE
    corner of my bed, and you smoked with the ghost in the back of my head. 
(from here it's back to the begging verse again followed by the opening
intro to end the song with a C#5 open chord x46600 .)
That's it. I am Adam Rogoyski.
email: apoc@laker.net
apoc@tab.com


A A#4 Asus B C#m E Esus F# G G#m7
variations - click chord images
Transpose chords:
Tuning:
Cool service:
View: Size:
A  A  A
Rating:
Layout:
  • Currently 2.8/5 Stars.
  • 1
  • 2
  • 3
  • 4
  • 5
 
Accuracy:
  • Currently 3.2/5 Stars.
  • 1
  • 2
  • 3
  • 4
  • 5
 
click stars to rate
Chordie recommends:
Learn how to play guitar at JamPlay.com
Songbook:
Login to add this song to your songbook
Support the artist
Preview/buy this song
MSN Music
Why this non-profit ad?

 
login to add comments/video/corrections