Chordie logo


Rape Camp   Lord Gore



-------------------------------------------------------------------------------
			     RAPE CAMP - Lord Gore
-------------------------------------------------------------------------------
Tabbed by: genocidedelight
Email:thesun.is.humming@gmail.com

Tuning: Drop B

Fig. 1A (bass intro)
e|---------------------------------|
B|---------------------------------|
G|---------------------------------|   
D|---------------------------------|
A|---------------------------------|
E|-0-0-6-3-2-2-7-3-0-0-6-3-2-2-7-3-|

Fig. 1B (same thing but with power chords)
e|---------------------------------|
B|---------------------------------|
G|---------------------------------|
D|-0-0-6-3-2-2-7-3-0-0-6-3-2-2-7-3-|
A|-0-0-6-3-2-2-7-3-0-0-6-3-2-2-7-3-|
E|-0-0-6-3-2-2-7-3-0-0-6-3-2-2-7-3-|
The open chords are occasionally palm muted.

Fig. 2  
e|---------------------------------------------------|
B|---------------------------------------------------|
G|---------------------------------------------------|
D|-0-----3-----2------------0-----6-----1------------|
A|-0-----3-----2------------0-----6-----1------------|
E|-0-----3-----2------------0-----6-----1------------|

Fig. 1B

Fig. 2

Fig. 3
e|-----------------------------------------------------
B|-----------------------------------------------------
G|-----------------------------------------------------
D|-----------------------------------------------------
A|-----------------------------------------------------
E|-0-0---0-0-3--0-0---0-0-3--0-0---0-0-3--1-1---1-1-4--

Fig. 3B
e|-----------------------------------------------------|
B|-----------------------------------------------------|
G|-----------------------------------------------------|
D|-0-0---0-0-3--0-0---0-0-3--0-0---0-0-3--1-1---1-1-4--|  
A|-0-0---0-0-3--0-0---0-0-3--0-0---0-0-3--1-1---1-1-4--|
E|-0-0---0-0-3--0-0---0-0-3--0-0---0-0-3--1-1---1-1-4--|
again, some chords are occasionally palm muted.

Fig. 3B (under first solo)

Fig. 4 (under second solo)   variation:
e|-------------------------|-------------------------|
B|-------------------------|-------------------------|
G|-------------------------|-------------------------|
D|-------------------------|-------------------------|
A|-------------------------|-------------------------|
E|-0"-3"-0"-3"-0"-3"-1"-4"-|-0"-3~-0"-3~-0"-3~-1"-4~-|
                                +     +     +     +

End on:
e|----|
B|----|
G|----|
D|-0--|
A|-0--|
E|-0--|


KEY
| "  tremolo pick
| +  pinch harmonic
| ~  vibrato



Important: The song above is NOT stored on the Chordie server. The original song is hosted at www.guitaretab.com. Chordie works as a search engine and provides on-the-fly formatting. Chordie does not index songs against artists/composers will. To remove this song please click here.

This song is displayed as text-only. Transposing and tuning is only available for chordpro-songs.

Login - add to songbook

Rating click stars to rate

Layout
Accuracy

SHARE PAGE  




You need to log in to post comments