Chordie logo

Deadbite Girls Gone Wild   Lordi



    ELEVEN=11

   intro:

e--------------------------------------------------------|
H--------------------------------------------------------|
G--------------------------------------------------------|
D---9----11-----9-----11-----9-11-9---2times-------------|
A---7-77-9--99--7-77--9--99--7-9--7----------------------|
E--------------------------------------------------------|


   "she lures you inventitation,,,"
e-----------------------------------------------------------------------|
H-----------------------------------------------------------------------|
G-----------------------------------------------------------------------|
D---11--9--11---------11--9-11----5---7--11----9----11-9--11------------|
A---9---7--9----------9---7--9----5---7--9--99-7-77-9--7--9-------------|
E---------------------------------3---5---------------------------------|

e--------------------------------------------------------------------|
H--------------------------------------------------------------------|
G--------------------------------------------------------------------|
D--11--9--11------11--9--11--5-7--9----11----9----11-----11--9--11---|
A--9---7--9-------9---7--9---5-7--7-77-9-99--7-77-9--99--9---7--9----|
E----------------------------3-5-------------------------------------|

   two strikes in bridge"shes santified by death!"
e----------|
H----------|
G----------|
D-5---7----|
A-5---7----|
E-3---5----|

   chorus:
    "HEY! stay away,,," listen the rythm,,,   play this twise  there reads 2x
e-------------------------------------------------------------------------|
H-------------------------------------------------------------------------|
G-----------------------------------7-------------------------------------|
D--------------------------------10-7----------------------------10-11----|2x
A--10---10-10-10-10--8--8-8-8----10-5--10-10-10-10-10--8-8-8-8---10-11----|
E--8----8--8--8---8--6--6-6-6----8-----8--8--8--8--8---6-6-6-6---8--9-----|

after chorus quite fast part.

e--------------0-3-0------------------|
H------------3-------3----------------|
G------0-2-4-----------4--------------|
D--8-6-------------------0-2----------|
A----------------------------6-8~-----|
E-------------------------------------|


then play verse again then chorus and now,,,


      solo:

e---------------------------------------------------------------|
H--10-9-7-5--------5-7-8-hold---------10-9-12-10-9-10-7---------|
G---------------------------------------------------------------|
D-----------5--7---------------5--7-----------------------------|
A-----------5--7---------------5--7-----------------------------|
E-----------5--7---------------5--7-----------------------------|

   then part "no dont thank heaven for litle girls"...


e---------------------------------11b--11-11-9------11b-----------|
H----------------------------------------------11-9---------------|
G-----------------------------------------------------------------|
D--5--7--5--7--3--5-----------------------------------------------|
A--5--7--5--7--3--5-----2times------------------------------------|
E-----------------------------------------------------------------|


  before that part below play intro riff 3times and then play chorus and then you are there...
      ENDING:
e----------------------------------------------------|
H----------------------------------------------------|
G----------------------------------------------------|
D---11--9--11--9--4-6-7------------------------------|
A---9---7--9---7--2-4-5------------------------------|
E----------------------------------------------------|




Important: The song above is NOT stored on the Chordie server. The original song is hosted at www.guitaretab.com. Chordie works as a search engine and provides on-the-fly formatting. Chordie does not index songs against artists/composers will. To remove this song please click here.

This song is displayed as text-only. Transposing and tuning is only available for chordpro-songs.

Login - add to songbook

Rating click stars to rate

Layout
Accuracy

SHARE PAGE  

You need to log in to post comments