Te Daria

Los Mox


Band: Los Mox Song: Te daria tabbed by Ignacio "Coco" Vespoli cocofuhgawz@hotmail.com
________________ KEY: () = PALM MUTE ________________
The whole song is played with a heavy distorted guitar
Intro riff |-------| |-------| |-------| |--(5)--| |--(5)--| |--(3)--|
Intro to verse |----------------------| |----------------------| |----------------------| |-5-4-2-0-0-0-0-0-0-0--| |-5-4-2-0-0-0-0-0-0-0--| |----------------------|
Verse |----------------------------------| |----------------------------------| |---------7-7-7-7------------------| |-5-5-5-5-7-7-7-7-4-4-4-4-4-4-4-4--| |-5-5-5-5-5-5-5-5-4-4-4-4-4-4-4-4--| |-3-3-3-3---------2-2-2-2-2-2-2-2--|
|----------------------------------| |----------------------------------| |---------6-6-6-6-3-3-3-3-3-3-3-3--| |-5-5-5-5-6-6-6-6-3-3-3-3-3-3-3-3--| |-5-5-5-5-4-4-4-4-1-1-1-1-1-1-1-1--| |-3-3-3-3--------------------------|
|----------------------------------| |----------------------------------| |-5-5-5-5-7-7-7-7-3-3-3-3-3-3-3-3--| |-5-5-5-5-7-7-7-7-3-3-3-3-3-3-3-3--| |-3-3-3-3-5-5-5-5-1-1-1-1-1-1-1-1--| |----------------------------------|
|-----------------------------------------| |-----------------------------------------| |---------4-4-4-4-2-2-2-2-2-2-2-2---------| |-7-7-7-7-4-4-4-4-2-2-2-2-2-2-2-2---------| |-7-7-7-7-2-2-2-2-0-0-0-0-0-0-0-0---------| |-5-5-5-5---------------------------------|
Bridge |------| |------| |-(4)--| |-(4)--| |-(2)--| |------|
Verse 2 |-----------------------------------------------| |-----------------------------------------------| |-4-4-4-4-6-6--6-6-6-6-8-8-8-8-3-3-3-3-3-3-3-3--| |-4-4-4-4-6-6--6-6-6-6-8-8-8-8-3-3-3-3-3-3-3-3--| |-2-2-2-2-4-4--4-4-4-4-6-6-6-6-1-1-1-1-1-1-1-1--| |-----------------------------------------------|
|--------------------------| |--------------------------| |-4-4-4-4-2-2-2-2-5-5-5-5--| |-4-4-4-4-2-2-2-2-5-5-5-5--| |-2-2-2-2-0-0-0-0-3-3-3-3--| |--------------------------|
Chorus
|-------------------| |-------------------| |-7--5--2-----------| |-7--5--2--7--5--2--| |-5--3--0--7--5--2--| |-------0--5--3--0--|
Intro riff again |-------| |-------| |-------| |--(5)--| |--(5)--| |--(3)--|
Intro to verse again |----------------------| |----------------------| |----------------------| |-5-4-2-0-0-0-0-0-0-0--| |-5-4-2-0-0-0-0-0-0-0--| |----------------------|
Verse again |----------------------------------| |----------------------------------| |---------7-7-7-7------------------| |-5-5-5-5-7-7-7-7-4-4-4-4-4-4-4-4--| |-5-5-5-5-5-5-5-5-4-4-4-4-4-4-4-4--| |-3-3-3-3---------2-2-2-2-2-2-2-2--|
|----------------------------------| |----------------------------------| |---------6-6-6-6-3-3-3-3-3-3-3-3--| |-5-5-5-5-6-6-6-6-3-3-3-3-3-3-3-3--| |-5-5-5-5-4-4-4-4-1-1-1-1-1-1-1-1--| |-3-3-3-3--------------------------|
|----------------------------------| |----------------------------------| |-5-5-5-5-7-7-7-7-3-3-3-3-3-3-3-3--| |-5-5-5-5-7-7-7-7-3-3-3-3-3-3-3-3--| |-3-3-3-3-5-5-5-5-1-1-1-1-1-1-1-1--| |----------------------------------|
|-----------------------------------------| |-----------------------------------------| |---------4-4-4-4-2-2-2-2-2-2-2-2---------| |-7-7-7-7-4-4-4-4-2-2-2-2-2-2-2-2---------| |-7-7-7-7-2-2-2-2-0-0-0-0-0-0-0-0---------| |-5-5-5-5---------------------------------|
Chorus again |-------------------| |-------------------| |-7--5--2-----------| |-7--5--2--7--5--2--| |-5--3--0--7--5--2--| |-------0--5--3--0--|
Intro riff again |-------| |-------| |-------| |--(5)--| |--(5)--| |--(3)--|
End with |-----------------| |-----------------| |-----------------| |--5-5-5-5-5-5-5--| |--5-5-5-5-5-5-5--| |--3-3-3-3-3-3-3--|
Comments? you know what to do!!!
Chek my site!!! www.guerradetoronjasenalmibar.8k.com

















variations - click chord images
Transpose chords:
Tuning:
Cool service:
View: Size:
A  A  A
Rating:
Layout:
  • Currently 0/5 Stars.
  • 1
  • 2
  • 3
  • 4
  • 5
 
Accuracy:
  • Currently 3.2/5 Stars.
  • 1
  • 2
  • 3
  • 4
  • 5
 
click stars to rate
Chordie recommends:
Learn how to play guitar at JamPlay.com
Songbook:
Login to add this song to your songbook
Support the artist
Preview/buy this song
MSN Music
Why this non-profit ad?

 
login to add comments/video/corrections