Chordie logo


Burning Flag For Forgotten Heros   Lost Souls



This Is My Song And It's Ur Best Song So If U Like It Leave A Comment Thanks!!!


Band: Lost Souls
Song: Buning Flag For Forgotten Heros
Album: Burning Flag For Forgotten Heros,2007
Tabbed By: Your55Im666
Lead Guitarest Of Lost Souls
If You Want Rithium Guitar Look 4 666isgod
Or If Ur Lookin 4 Bass Look 4 Lostsoulier




Tuning:(CEDFAe)




Intro:

       X2           X2            X2          X2            X2
|-12----------|-13----------|-12----------|-9--------|-12----------||
|---12--------|---13--------|---12--------|--9-------|---12--------||
|-----12-14-15|-----13-15-16|-----12-14-15|---9-11-12|-----12-14-15||
|-------------|-------------|-------------|----------|-------------||
|-------------|-------------|-------------|----------|-------------||
|-------------|-------------|-------------|----------|-------------||

Riff:

|----------------------------||
|----------------------------||
|----------------------------||X4
|----------------------------||
|----------------------------||
|-000000-222222-444444-666666||

Chorus:

|----------------------------||
|----------------------------||
|----------------------------||X2
|-222222-444444-666666-------||
|-222222-444444-666666-999999||
|-000000-222222-444444-666666||

Interlude And Outro:

      X2           X2              X2           X2          X2
|-------------|-------------|--------------|----------|-------------|
|-------------|-------------|--------------|----------|-------------|
|-------------|-------------|--------------|----------|-------------|
|-----12-14-15|-----13-15-16|------12-14-15|---9-11-12|-----12-14-15|
|---12--------|---13--------|----12--------|--9-------|---12--------|
|-12----------|-13----------|-12-----------|-9--------|-12----------|



The Way Its Played:
Intro
Verse I
Chorus
Verse II
Interlude
Verse II
Chorus X2
Outro 

Thats It Leave A Comment If U Think Its Good Thank!!!


Important: The song above is NOT stored on the Chordie server. The original song is hosted at www.guitaretab.com. Chordie works as a search engine and provides on-the-fly formatting. Chordie does not index songs against artists/composers will. To remove this song please click here.

This song is displayed as text-only. Transposing and tuning is only available for chordpro-songs.

Login - add to songbook

Rating click stars to rate

Layout
Accuracy

SHARE PAGE  




You need to log in to post comments