Chordie logo

A Chemical Reaction   Lost Souls



This is the lead guitar style of this song I use a dean razorback or a dean v guitar with a marshall amp.

Band: Lost Souls
Song: A Chemical Reaction
Album: Burning Flag For Forgotten Heros, 2007
Tabbed By: your555im666

Tuning: (CEDFAe)


Intro:


e|--------------------------------|
A|--------------------------------|
F|--------------------------------|
D|--------------------------------|X4
E|-------------------------1-2-3/4|
C|-3-3-3-3-3-3-1-1-1-1-1-1--------|


Riff:(Verse I,II,III)


|----------------------------------------|
|----------------------------------------|
|----------------------------------------|
|----------------------------------------|X4
|-------------------------1-1-3-3-5-5-7-7|
|-3-3-3-3-3-3-1-1-1-1-1-1----------------|


Chorus:


|--------------------|--------------------|
|--------------------|--------------------|
|--------------------|--------------------|
|--------------------|--------------------|
|--------------------|--------------------|
|-0-0-0-0-0-0-7-5-3-0|-0-0-0-0-0-0-7-5-3-0|


Solo:(In this song there r 2 solos the lead and the rythem we play dem over each other)


|-------8-10-12-8-------------7-8-10-7-----|-----5-7-8-5---------4-6-7-4----
|-----10---------10----------8--------8----|----6-------6-------5-------5---
|----9-------------9--------7----------7---|---5---------5-----4---------4--
|--10---------------10-----9------------9--|--7-----------7---6-----------6-
|12-------------------12-10--------------10|8-------------8-7--------------7
|------------------------------------------|--------------------------------

|--8-7-8-5-8-7-8-10-8-10-7-10-8-10|--12-10-12-8-12-10-12-10-7---7-----|
|-5-------------6-----------------|10------------------------9---9----|
|---------------------------------|---------------------------10--10-7|
|---------------------------------|-----------------------------------|
|---------------------------------|-----------------------------------|
|---------------------------------|-----------------------------------|

|-----------12-8--8---|-10-7---7-10-7----7|
|---------10----10-10-|-----8-8------9--9-|
|-----9--9-----------9|------7--------10--|
|---10-10-------------|-------------------|
|-12------------------|-------------------|
|---------------------|-------------------|

|---------8-10-12-10-8------------------|------12-11-10-------------|
|--8-10-12------------12-10-9-----------|----10--------(10)(11)(12)-|
|----------------------------10-9-------|-7-9-----------------------|
|--------------------------------12-10-9|---------------------------|
|---------------------------------------|---------------------------|
|---------------------------------------|---------------------------|
                                                
|--------------------------------|
|-10-10-11-11-12-12-12-11-10-(12)|
|--------------------------------|
|--------------------------------|    ( )= bend Up
|--------------------------------|
|--------------------------------|



The Way It's Played:
Intro
Verse I
Chorus
Verse II
Chorus
Verse III
Chorus X2
Solo

--------------------------------------------

End

                       



Important: The song above is NOT stored on the Chordie server. The original song is hosted at www.guitaretab.com. Chordie works as a search engine and provides on-the-fly formatting. Chordie does not index songs against artists/composers will. To remove this song please click here.

This song is displayed as text-only. Transposing and tuning is only available for chordpro-songs.

Login - add to songbook

Rating click stars to rate

Layout
Accuracy

SHARE PAGE  

You need to log in to post comments