eToCache5 = ""; ?> Its Not The End Of The World by Lostprophets - guitar chords, guitar tabs and lyrics - chordie

Its Not The End Of The World

Lostprophets

Drop D- like always

Chords to open

 AbmBEbEbsus4EbDbm
Little riff
e|---------------------------------------|
B|---------------------------------------|
G|---------------------------------------|
D|---------------------------------------|
A|--------------------6-6-4-6-7-7-6-4 x2-|
D|-6-6-4-6-7-7-6-4 x2 -------------------|


Verse

Play Ab5 Eb5 and then the riff at the right time

On the second verse i think Lee plays something like this

e|-------|

B|-9---8-|
G|-8---8-|
D|-------| Play around with it
A|-------|
D|-------|


Pre Chorus

Not sure if its right
e|-------------------------------|
B|-------------------------------|
G|-9---8----------------11---10--|
D|-9---8----------------11---10--|
A|-7---6---2--4--- x 3--9----12--|
D|-------------------------------|


Chorus

Just play power chords

 Ab5B5Eb5Db5
Then play the riff

B|-----------------------------|
G|-13---12-- VIBRATO the notes-|
D|-----------------------------|
A|-----------------------------|
D|-----------------------------|
e|--------------------------------------------------------------|
B|--------------------------------------------------------------|
G|-11-11-11-11-11-11-14-14-14-14-14-14-13-13-13-13-13-13-13 ETC-|
D|--------------------------------------------------------------|
A|--------------------------------------------------------------|
D|--------------------------------------------------------------|

Theres a few parts missing but i gave it ago


Ab5 Abm B B5 Db5 Dbm Eb Eb5
variations - click chord images
Transpose chords:
Tuning:
Cool service:
View: Size:
A  A  A
Rating:
Layout:
  • Currently 2.5/5 Stars.
  • 1
  • 2
  • 3
  • 4
  • 5
 
Accuracy:
  • Currently 2.8/5 Stars.
  • 1
  • 2
  • 3
  • 4
  • 5
 
click stars to rate
Chordie recommends:
Get acoustic guitar lessons and electric guitar lessons at JamPlay.com
Songbook:
Login to add this song to your songbook
Support the artist
Preview/buy this song
MSN Music
Why this non-profit ad?

 
login to add comments/video/corrections