Chordie logo


Shut Up And Dance   Love Automatic



This is a song by and up and coming band near me. 
http://loveautomatic.com/
Guitar 1-distortion-Drop db(eb,Bb,Gb,Db,Ab,Db)
Guitar 2-distortion-Drop db(eb,Bb,Gb,Db,Ab,Db)

Legend
~=vibrato/hold note
/=slide up
\=slide down
.=palm mute
x=mute note




Intro
Guitar 1
eb|---------------------------------------------|
Bb|-6~6~/10~10~\8~8~-8-8-6-6--~6~/10~10~\8~8~-x-|
Gb|---------------------------------------------|
Db|---------------------------------------------|
Ab|---------------------------------------------|
Db|---------------------------------------------|
Pre-verse(x2)
Guitar 1
eb|---------------------------------------------|
Bb|-6666-6666-10101010-101010-8888-8888-8-8-666-|
Gb|-xxxx-xxxx-x-x-x-x--x-x-x--xxxx-xxxx-x-x-xxx-|
Db|-3333-3333-7-7-7-7--7-7-7--5555-5555-5-5-333-|
Ab|---------------------------------------------|
Db|---------------------------------------------|

Guitar 2
eb|---------------------------------------------|
Bb|---------------------------------------------|
Gb|-7777-7777-7777-7777-5555-5555---------------|
Db|-7777-7777-7777-7777-5555-5555-5-5-3/5-3/5-3-|
Ab|-5555-5555-5555-5555-3333-3333-5-5-3/5-3/5-3-|
Db|-------------------------------5-5-3/5-3/5-3-|




Verse
Guitar 1
eb|--1~~~~~~~~~~1~~~~~~~~~~-|
Bb|--3~~~~~~~~~~3~~~~~~~~~~-| 
Gb|--2~~~~~~~~~~2~~~~~~~~~~-| 
Db|--0~~~~~~~~~~0~~~~~~~~~~-|
Ab|--0-~~~~~~~~-0-~~~~~~~~~-|
Db|--0-~~~~~~~~-0-~~~~~~~~~-|

Bass Interlude

Prechorus(x2)
Guitar 1
eb|----------------------------------------------|
Bb|--6-6-6-6-10-10-10-10-11-11-11-11-10-10-10-10-|
Gb|--x-x-x-x-x--x--x--x--x--x--x--x--x--x--x--x--|
Db|--3-3-3-3-7--7--7--7--8--8--8--8--7--7--7--7--|
Ab|----------------------------------------------|
Db|----------------------------------------------|

Chorus
Guitar 1
eb|------------------------------------------------------------------|
Bb|------------------------------------------------------------------|
Gb|-------------------------------555-77-777-7777--------------------|
Db|-3-3-3-3-3333-777-8-8-8-8-8888-555-77-777-7777-777-8-8-888-888888-|
Ab|-3-3-3-3-3333-777-8-8-8-8-8888-333-55-555-5555-777-8-8-888-888888-|
Db|-3-3-3-3-3333-777-8-8-8-8-8888-----------------777-8-8-888-888888-|

Guitar 2
eb|------------------------------------------------------------------------|
Bb|------------------------------------------------------------------------|
Gb|-12-12-12-12\10/1212121212-12-12-1212-101212-9-9-9999-999-10101010-1010-|
Db|-x--x--x--x--x--x-x-x-x-x--x--x--x-x--x-x-x--x-x-xxxx-xxx-x-x-xxxx-xxxx-|
Ab|-10-10-10-10\8/-1010101010-10-10-1010\8/1010-7-7-7777-777-8-8-8888-8888-|
Db|------------------------------------------------------------------------|

Chorus pt. 2
Guitar 1
eb|------------------------------------------------------------------|
Bb|------------------------------------------------------------------|
Gb|-------------------------------555-77-777-7777--------------------|
Db|-3-3-3-3-3333-777-8-8-8-8-8888-555-77-777-7777-777-8-8-888-888888-|
Ab|-3-3-3-3-3333-777-8-8-8-8-8888-333-55-555-5555-777-8-8-888-888888-|
Db|-3-3-3-3-3333-777-8-8-8-8-8888-----------------777-8-8-888-888888-|


Guitar 2
eb|------------------------------------------------------------------------|
Bb|------------------------------------------------------------------------|
Gb|-12-12-12-12\10/1212121212-14-14-1414-141414-9-9-9999-999-10101010-1010-|
Db|-x--x--x--x--x--x-x-x-x-x--x--x--x-x--x-x-x--x-x-xxxx-xxx-x-x-xxxx-xxxx-|
Ab|-10-10-10-10\8/-1010101010-12-12-1212-121212-7-7-7777-777-8-8-8888-8888-|
Db|------------------------------------------------------------------------|

Pre-verse(x1)

Verse 2
Guitar 1
eb|--1~~~0-1~~~~1~~~0-1~~~~-|
Bb|--3~~~~~~3~~~3~~~~~~3~~~-| 
Gb|--2~~~~~~~~~~2~~~~~~~~~~-| 
Db|--0~~~~~~~~~~0~~~~~~~~~~-|
Ab|--0-~~~~~~~~-0-~~~~~~~~~-|
Db|--0-~~~~~~~~-0-~~~~~~~~~-|

Interlude 2(x2)
Guitar 1
eb|-------------------------------------|
Bb|-------------------------------------|
Gb|-----------7777-777------------------|
Db|-8888-8888-7777-777-7777-7-5-7-88888-|
Ab|-8888-8888-5555-555-7777-7-5-7-88888-|
Db|-8888-8888----------7777-7-5-7-88888-|
pm  .... .... .... ... .... . . . .....

Guitar 2
eb|--------------------------------------|
Bb|--------------------------------------|
Gb|-7777-7777-9999-999-6666--101010-9999-|
Db|--------------------------------------|
Ab|--------------------------------------|
Db|--------------------------------------|
pm  .... .... .... ... .... 

*Prechorus

*Chorus 

Bridge pt 1
Guitar 1-Prechorus

Bridge pt 2
Guitar 1-interlude 2
Guitar 2-Prechorus


Last Chorus

Guitar 1
eb|--------------------------------------|
Bb|--------------------------------------|
Gb|-keys-7-7-7777-7-77-------------------|
Db|------7-7-7777-7-77-777-8-8-8888-8888-|
Ab|------5-5-5555-5-55-777-8-8-8888-8888-|
Db|--------------------777-8-8-8888-8888-|

Guitar 2
eb|----------------------------------------|
Bb|----------------------------------------|
Gb|-keys-9-9-9999-999-9910-10-101010101010-|
Db|------x-x-xxxx-xxx-xxx--x--x-x-x-x-x-x--|
Ab|------7-7-7777-777-778--8--8-8-8-8-8-8--|
Db|----------------------------------------|

*Chorus pt 2

Ending

Guitar 1
eb|--------------------|
Bb|-6~6~/10~10~\8~8~-x-|
Gb|--------------------|
Db|--------------------|
Ab|--------------------|
Db|--------------------|

Guitar 2
eb|-1~~~~~~~~~~~~~~-|
Bb|-3~~~~~~~~~~~~~~-|
Gb|-2~~~~~~~~~~~~~~-|
Db|-0~~~~~~~~~~~~~~-|
Ab|-0~~~~~~~~~~~~~~-|
Db|-0~~~~~~~~~~~~~~-|




Important: The song above is NOT stored on the Chordie server. The original song is hosted at www.guitaretab.com. Chordie works as a search engine and provides on-the-fly formatting. Chordie does not index songs against artists/composers will. To remove this song please click here.

This song is displayed as text-only. Transposing and tuning is only available for chordpro-songs.

Login - add to songbook

Rating click stars to rate

Layout
Accuracy

SHARE PAGE  




You need to log in to post comments