Truth Has Failed

Love Equals Death

-------------------------------------------------------------------------------

-------------------------------------------------------------------------------
e|--------------------|-------------------|--------------------------------------|
B|--------------------|-------------------|--------------------------------------|
G|.-(7)--------------.|.-----------------.|(4)-----------------------------------|
D|.--7--7--7-7--7--7-.|.-(7)-------------.|-4--4--4-5--5--5-4--4--4----4--4--4---|
A|---5---5---5---5----|---7-7--7-7--7--7--|-2---2---2---2---2----2-----2---2-----|
E|--------------------|---5--5---5---5----|--------------------------------------|
e|----------------------------------------------------------------------------|
B|----------------------------------------------------------------------------|
G|.---------------------------------------------------------------------------|
D|.(5)---------------(7)------------------------------------------------------|
A|--5--5--5--5--5--5--7--7--7-7--7--7-----------------------------------------|
E|--3---3----3---3----5---5---5---5-------------------------------------------|

 D5A5B5G5A5
Verse 1:

 D5A5
      The truth means everything to a dying heart
B5 B/5+(no3) B5 G5 A5
Where were you when things fell apart?
 D5A5
      Excuses you gave insulted me
B5 B/5+(no3) B5 G5 A5
Take a long hard look at the truth and you'll see

Chorus 1:

 G5A5
   You're all that I need
 G5
If you call I will be there
 A5
You mean everything
 B5
If you fall I will be there
 G5A5
You made this heart bleed
 G5A5
The truth has failed

Verse 2:

 D5A5
       Promises made in the dark
B5 B/5+(no3) B5 G5 A5
It's a fools game of heart to heart
 D5A5
       Memories will fade just like a fire
B5 B/5+(no3) B5 G5 A5
This passion burns for old desires

Chorus 2:

 G5A5
   You're all that I need
 G5
If you call I will be there
 A5
You mean everything
 B5
If you fall I will be there
 G5A5
You made this heart bleed
 G5A5
The truth has failed

The bridge is pretty simple it is the same as the verse but with picking your ring and
fingers on your left hand on and off quite easy to work out... let me know if you require
tabbed

 D5A5
      The truth means everything to a dying heart
B5 B/5+(no3) B5 G5 A5
Where were you when things fell apart?

 D5A5
       Promises made in the dark
B5 B/5+(no3) B5 G5 A5
It's a fools game of heart to heart

* Im not 100% on the B5 into B/5+(no3) thing (it is a pinky finger on off thing) like
order may be different but you should get the idea.


A5 B5 D5 G5
variations - click chord images
Transpose chords:
Tuning:
Cool service:
View: Size:
A  A  A
Rating:
Layout:
  • Currently 1.3/5 Stars.
  • 1
  • 2
  • 3
  • 4
  • 5
 
Accuracy:
  • Currently 2.3/5 Stars.
  • 1
  • 2
  • 3
  • 4
  • 5
 
click stars to rate
Chordie recommends:
Learn to play this song & others via video guitar lessons at JamPlay.com
Songbook:
Login to add this song to your songbook
Support the artist
Preview/buy this song
MSN Music
Why this non-profit ad?

 
login to add comments/video/corrections