Guitar Tabs, Chords and Lyrics


The Castle  Love



[instrumental over verse cbords] 

Verse 1:

        H[C]ere's my b[G]aggage, h[Am]and me my st[C]aff

bass:
              [D]v   v   [Am]v   v   v   v     [A]v
	     ---------2---------------|---|
	     -0---0-3---3-2---0-------|---|
	     ---0---------------3-----|-0-|
	     ---------------------1h2-|---|

I'm leaving on a plane, a boat or raft

        [Em]Oh...  [G]

Verse 2:

A my love, B I love, so hard to choose
If that were in my mind, it I would use
Oh...

Bridge:

        G[C]oin' back to M[F]other
        L[C]eavin' on the d[F]ouble
        Th[D]ink I'll go to M[G]ex[A]ic[D]o

        [3/4] 
Oh oh oh

bass:
v v v v v v v v v v
	---------7\--|---------5\--|---------4\--|---|
	-------7-7\--|-------5-5\--|-------4-4\--|---|
	-5---5-------|-3---3-------|-2---2-------|---|
	-------------|-------------|-------------|-3-|


[3 instrumental repeats of verse cbords (w/barpsicbord 2nd and 3rd time] 

[repeat intro (w/full band, bass as indicated]:
        [Am]A  C  [Em]B  D    [C]C  E[Fmaj7]  D  F    [Am]E     A      [A]E     A]     <= bass
Coda:

        [C#addG]x4302x        [DaddG]x5403x
[2:20] 

Acoustic guitar [2X]:

                                                   Em [band]
v v v v v v v v
	---------------------------------|---------/---/-------------------|
	---------------------------------|---------------------------------|
	---------------------------------|---------------------------------|
	-------------2---3p2---2p0-------|---------------------------------|
	-2---2h3h5-------------------3---|-2-------------------------------|
	---------------------------------|---------0---0-------------------|

^ 1st time only

[2:25] 

guitar 1:
v v v v v v v v v v v v
	-------------|-------------|-------------|-------------|
	-------------|-------------|-------------|-------------|
	-------------|-------------|-------------|-------------|
	-2---3---0---|-------------|-------------|-------------|
	-------------|-2-------0---|-2---3----0--|-2-------0---|
	-------------|-----3-------|-------------|-----3-------|


guitar 2:
v v v v v v v v v v v v
	-------------|-------------|-------------|-2---3---0---|
	-------------|-------------|-2---3---0---|-------------|
	-------------|-2---3---0---|-------------|-------------|
	-2---3---0---|-------------|-------------|-------------|
	-------------|-------------|-------------|-------------|
	-------------|-------------|-------------|-------------|


bass:
v v v v v v v v v v v v
	-------------|-------------|-1---2-------|-4---5-------|
	-------------|-2---3---0---|---------3---|---------7---|
	-------------|-------------|-------------|-------------|
	-------------|-------------|-------------|-------------|



guitar 1:
v v v v v v v
	-------------|-------------|-7-|
	-------------|-3---5---7---|-7-|
	-------------|-4---6---8---|-8-|
	-------0-2-0-|-------------|---|
	----2--------|-------------|---|
	-0-----------|-------------|---|


guitar 2:
v v v v v v v
	-------------|-2-3-2---2---|---|
	-3---4---0---|-------------|---|
	-------------|-------------|-0-|
	-------------|-------------|---|
	-------------|-------------|---|
	-------------|-------------|---|


bass:
v v v v v v v
	-6---7-------|-8---9-------|---|
	---------9---|---------10--|-9-|
	-------------|-------------|---|
	-------------|-------------|---|


[2:31; free tempo to end] 

	---------------|
	---------------|
	-2----2h3-2----|
	-2-----2--0----|
	-0-----0--0----|
	---------------|

^^^^^ 6X

        [drum roll] 

	---------------|
	---------------|
	-2----2h3-2----|
	-2-----2--0----|
	-0-----0--0----|
	---------------|

^^^^^ 5X


-- another ace 60's tab from Andrew Rogers

Important: The song above is NOT stored on the Chordie server. The original song is hosted at www.guitaretab.com. Chordie works as a search engine and provides on-the-fly formatting. Chordie does not index songs against artists'/composers' will. To remove this song please click here.

Text color:
Chord color:
Chord grids: 
Font size:    
Page size: 

A Am C C#addG D DaddG Em F Fmaj7 G
variations - click chord images

Login - add to songbook

Transpose chords

Tuning

Rating click stars to rate

Layout
Accuracy

SHARE PAGE  




You need to log in to post comments