Guitar Tabs, Chords and Lyrics


That Much Further West   Lucero


-----------------------------------------------------------------------------











-------------------------------------------------------------------------------





                                    


and that is played right after he says that much further west





then right before the solo it breaks into this


BRIDGE


   E               Eb/E              Eb/E/Ab\F#   Eb/E\Eb /F#


                                    


something around that(i Believe) u can figure the strumming out





solo:


                                                                                                             


e|--------------------------------------------------------------------|
B|--------------------------------------------------------------------|
G|---------------------------------------------------13---------------|
D|-------------------------------------------13--16-------------------|
A|----14/16-14-14------14/16-14-14-----14/16-------------16-16\14-----|
E|--------------------------------------------------------------------|
e|-------------------------------------------------------|
B|-------------------------------------------------------|
G|---------------------13--------------------------------|
D|--------16-16--16-13----16-16--------------------------|
A|--14/16------------------------16-14--14/16--14--14----|
E|-------------------------------------------------------|



Important: The song above is NOT stored on the Chordie server. The original song is hosted at www.guitaretab.com. Chordie works as a search engine and provides on-the-fly formatting. Chordie does not index songs against artists'/composers' will. To remove this song please click here.

This song is displayed as text-only. Transposing and tuning is only available for chordpro-songs.

Login - add to songbook

Rating click stars to rate

Layout
Accuracy

SHARE PAGE  




You need to log in to post comments